Cifra Club

Who Spilt My Beer

Adicts

Cifrado: Principal (guitarra y guitarra eléctrica)
Acompaña nuestras novedades de Cifra Club en español.
¡Sigue nuestro perfil en Instagram!
tono: A
Introdução (2xs)

  A    A5 D5 B5 C#5 D#5 A5 E5 
E-5-----------------------------
B-5-----------------------------
G-6~~~~---7~~4---6--7------9----
D-7~~~~7--7~~4---6--7---7--9----
A-7~~~~7--5~~2---4--5---7--7----
E-5----5----------------5-------

Segunda parte da introdução (com solo)

E------------------------------------2-------5-4---5~~~-
B-------------------3-2--------2-5-2---5-2-5------------
G-4b6-4b6-4b6-2-4-2-----4-2-4---------------------------
D-------------------------------------------------------
A-------------------------------------------------------
E-------------------------------------------------------

A base do solo é a mesma da introdução

Versos

Iguais a introdução (2x)

Refrão (2x) (somente acordes, para a batida correta ouça a música)
 
  A   E   A   F#   B   E 
E-5---7---5------------0-----------
B-5---9---5------------0-----------
G-6---9---6--------4---1-----------
D-7---9---7---4----4---2-----------
A-7---7---7---4----2---2-----------
E-5---7---5---2--------0-----------

Repete solo da segunda parte da introdução

Verso (2x)

Refrão (2x)

Segunda parte da introdução uma vez e depois:

SOLO

E----------------------------------------------------------------------------------------------
B-14----14----14------14----15-14-----------------15-14----------------------------------------
G-16b18-16b18-16b18---16b18-------16-14-16--14-16-------16-14-14tr16-14tr16-14tr16-14tr16------
D-----------------------------------------------------------------------------------------14~~~
A----------------------------------------------------------------------------------------------
E----------------------------------------------------------------------------------------------

Ponte (2:12)

guitarra1
E--------------------------------------
B--------------------------------------
G----7--4---6-7------------------------
D-7--7--4---6-7------------------------
A-7--5--2---4-5------------------------
E-5--------------5-4-2-0---------------

guitarra2
E--------------------------------------
B--------------------------------------
G---7--4---6--7------------------------
D--------------------------------------
A--------------------------------------
E---------------5-4-2-0----------------

Final (Com mesmos acordes do Refrão)

E--------------------------------------------------------------
B--------------------------------------------------------------
G-16b18-14---16b18-14---16b18-14-------14-14-------------------
D--------------------------------16-14---------16--14///0----
A------------------------------------------------14------------
E--------------------------------------------------------------

E Então

E5 D5 C#5 B5 A5 G#5 F#5 E5 A5

E----------
B----------
G----------
D----------
A-(3:17)---
E-17///0---
Compositor não encontrado.
Colaboración y revisión:
  • Gabriel Silva
47 vistas
    • ½ Tono
    • A
    • Bb
    • B
    • C
    • Db
    • D
    • Eb
    • E
    • F
    • F#
    • G
    • Ab
  • Agregar a la lista

    0 comentarios

    Ver todos los comentarios

    ¿Lograste tocar?

    0 Tocaron 0 Aún no

    ¡Graba un video tocando Who Spilt My Beer y envíanoslo!

    00:00 / 00:00
    Outros vídeos desta música
    Repetir Calidad Automático
    Outros vídeos desta música
    00:00 / 00:00
    Automático
    OK