Cifra Club

Ganhar ou Perder

Aditive

Cifrado: Principal (guitarra y guitarra eléctrica)
tono: Db
Guitarrista - Hóspede

Intro
E|--------------------------------------------|
B|--------------------------------------------|
G|-6-6-6-6-6--5--5-5-5-8-8-8-8-6-6-6-6-6-6-6--|
D|-x-x-x-x-x--x--x-x-x-x-x-x-x-x-x-x-x-x-x-x--| X2
A|-4-4-4-4-4--4--4-4-4-4-4-4-4-4-4-4-4-4-4-4--|
E|--------------------------------------------|
 
E|-------------------------------------------------------------------------------------
B|-------------------------------------------------------------------------------------
G|--------------------------------------------6-8-810-8--------------------------------
D|-8-6-6-6-6-6-6-6-------------4-6-6-6-6-6-6-x-x-x-x-x-8------------6-6-6-6-6-6-4------
A|-8-------------6-------------4-------------4-6-6-8-6-8------------6-----------4------
E|-6-------------4-------------2-----------------------6------------4-----------2------
-------------------------------------------|
-------------------------------------------|
----------------/101010101010--------------|
------8-8-8-6-4-/x-x-x-x-x-x---------------|
------8-8-8-6-4-/8-8-8-8-8-8---------------|
------6-6-6-4-2----------------------------|

C#5      F#5                        
Nunca pensei
             A#5        G#5 Eb5 F8 F#8 
que essa história fosse terminar assim
C#5              F#5                                 
mas isso não me importa mais 
   A#5   G#5     Eb5   F8  C#5                A#5               
se eu soubesse de tudo que eu sempre fui capaz

       F#5
Mesmo assim
       C#5       G#5 
eu não vou me abater
G|6 6/8/6-3-|
D|x-x/x-x-x-|                                         Pré - Refrão
A|4-4/6-4-1-|

A#5                  F#5             
não vou me preocupar nem vou voltar atrás
C#5       G#5
me arrepender prá que? 

E assim.............vou ser
e|------------------------------------------------------------|
B|------------------------------------------------------------|
G|3/101010103/101010103/101010103/10101010-666666-88888-555555|
D|x/x-x-x-x-x/x-x-x-x-x/x-x-x-x-x/x-x-x-x--xxxxxx-xxxxx-xxxxxx|
A|1/8-8-8-8-1/8-8-8-8-1/8-8-8-8-1/8-8-8-8--444444-66666-333333|
E|------------------------------------------------------------|
            
ganhar, perder não vou mudar                          Refrão

e assim.............vou ser
e|------------------------------------------------------------|
B|------------------------------------------------------------|
G|3/101010103/101010103/101010103/10101010-666666-88888-555555|
D|x/x-x-x-x-x/x-x-x-x-x/x-x-x-x-x/x-x-x-x--xxxxxx-xxxxx-xxxxxx|
A|1/8-8-8-8-1/8-8-8-8-1/8-8-8-8-1/8-8-8-8--444444-66666-333333|
E|------------------------------------------------------------|                                       
sempre o mesmo e nada importa não

E|-----------------------------------------------------------------------------------|
B|-----------------------------------------------------------------------------------|
G|-------------------------------------------6-8-810-8-------------------------------|
D|-8-------------6-6-6-6-6-6-6-4-------------x-x-x-x-x-8-6-6-6-6-6-6-6-----------4---|
A|-8-------------6-------------4-------------4-6-6-8-6-8-------------6-----------4---|
E|-6-------------4-------------2-----------------------6-------------4-----------2---| 

C#5         F#5
Eu nunca pensei
            A#5        G#5 Eb5 F8 C#8 
que isso um dia fosse me abalar
C#5          F#5
sempre a esperar                                        
   A#5      G#5 Eb5  F8  C#5  
promessas vazias não se cumprirão

Repetir: Pré - Refrão e Refrão
e|-------------------------------------|
B|6---------6---------6----------------|
G|-6-5---5---6-5---5---6-5-------------|
D|--6-6h8-6---6-6h8-6---6--------------|
A|-------------------------------------|
E|-------------------------------------|
São coisas fáceis de esquecer   deixar de lado e não chorar   tudo o que eu quiser eu vou ter
eb8 f8 C#8   

Solo
e|-----------------------------------------------------------------------------------
B|-----------------------------------------------------------------------------------
G|---------6-----5-6-5----------6-----5-5-6-8-6-5-------5-5-5-------5-5-5-------6-6-6
D|-------6--------------------6------------------------------------------------------
A|4-4-4-4-4-4-4-4--------------------------------6-6-6-6-----6-6-6-6-----8-8-8-8-----
E|---------------------4-4-4-4-4-4-4-4-----------------------------------------------
----------------|
----------------|
--------8-10/8--|
-8-8-8-8--------| X2
----------------|
----------------|

C#5
Não importa o que passou
G#5                 Eb5 F5
eu não vou me preocupar
F#5    G#5         
eu não quero nem saber
C#5        G#5          Eb5 F5
eu não vou mais me preocupar
F#5      G#5          
se eu ganhar ou perder. 

e|1--------1--------1--------1--------1--------1----|
B|-2--------2--------2--------2--------2--------2---|
G1--------------------------------------------------|
A|--------------------------------------------------|
D|--------------------------------------------------|
E|--------------------------------------------------|

A#4   F F#   G#

Repetir: Refrão

E|------------------------------------------|
B|------------------------------------------|
G|------------------------------------------|
D|-8-6-6-6-6-6-6-6-------------4------------|
A|-8-------------6-------------4------------|
E|-6-------------4-------------2------------|

_______________________________________________________________________________________

Guitarrista - Sonrisal

Intro - C#5, F#5

E|-------------------------------------------------------------------------------------
B|-------------------------------------------------------------------------------------
G|-------------------------------------------6-8-810-8---------------------------------
D|-8-------------6-6-6-6-6-6-6-4-------------x-x-x-x-x-8-6-6-6-6-6-6-6-----------4-6-6-
A|-8-------------6-------------4-------------4-6-6-8-6-8-------------6-----------4-----
E|-6-------------4-------------2-----------------------6-------------4-----------2-----
------------------------------------6h7h6-6-|
-------------------/101010101010-6-6--------|
-6-6-6-6-8-8-8-6-4-/x-x-x-x-x-x-------------|
---------8-8-8-6-4-/8-8-8-8-8-8-------------|
---------6-6-6-4-2--------------------------|

C#5      F#5                        
Nunca pensei
             A#5        G#5 Eb5 F8 F#8 
que essa história fosse terminar assim
C#5               C#5
mas isso não me importa mais 
   F8    Eb5      Ab8  F8 G#8                 A#5
se eu soubesse de tudo que eu sempre fui capaz

       F#5
Mesmo assim
       C#5       G#5 
eu não vou me abater
G|6 6/8/6-3-|
D|x-x/x-x-x-|                                         Pré - Refrão
A|4-4/6-4-1-|

A#5                  F#5             
não vou me preocupar nem vou voltar atrás
C#5       G#5
me arrepender prá que? 

A#5         F#5
E assim vou ser
 C#5              G#5
ganhar, perder não vou mudar                          
A#5         F#5                                        Refrão
E assim vou ser                                        
C#5              G#5
sempre o mesmo e nada importa não

E|----------------------------------------------------------------------------------|
B|----------------------------------------------------------------------------------|
G|--------------------------------------------6-8-810-8-----------------------------|
D|-8-6-6-6-6-6-6-6-------------4-6-6-6-6-6-6-x-x-x-x-x-8------------6-6-6-6-6-6-4---|
A|-8-------------6-------------4-------------4-6-6-8-6-8------------6-----------4---|
E|-6-------------4-------------2-----------------------6------------4-----------2---|

C#5         F#5
Eu nunca pensei
            A#5        G#5 Eb5 F8 F#8 
que isso um dia fosse me abalar
C#5          C#5
sempre a esperar
   F8    Eb5     Ab8 F8 G#8      A#5
promessas vazias não se cumprirão

Repetir: Pré - Refrão e Refrão

e|---------------------------------------------------------------------|
B|---------------------------------------------------------------------|
G|----------865-----------865----------865-----------------------------|
D|--6--6--6-666---6--6--6-666--6--6--6-666-----------------------------|
A|-4--6--8-------4--6--8------4--6--8----------------------------------|
E|2--4--6-------2--4--6------2--4--6-----------------------------------|
 São coisas fáceis de esquecer      deixar de lado e não chorar      tudo o que eu quiser eu vou ter
A#4 F5 F#5   

Durante o solo
C#5      G#5      Eb5 F5 F#5 G#5  

C#5
Não importa o que passou
G#5                 Eb5 F5
eu não vou me preocupar
F#5    G#5         
eu não quero nem saber
C#5        G#5          Eb5 F5
eu não vou mais me preocupar
F#5      G#5          
se eu ganhar ou perder. 

e|----------------------------------------------------------------------------|
B|----------------------------------------------------------------------------|
G|-6--------6--------6--------6--------6--------6--------6--------6-----------|
D|--6--------6--------6--------6--------6--------6--------6--------6----------|
A|----------------------------------------------------------------------------|
E|----------------------------------------------------------------------------|

Eb F F# G#
Repetir: Refrão

E|------------------------------------------|
B|------------------------------------------|
G|------------------------------------------|
D|-8-------------6-6-6-6-6-6-6-4------------|
A|-8-------------6-------------4------------|
E|-6-------------4-------------2------------|
00:00 / 00:00
Otros videos de esta canción
Repetir
Otros videos de esta canción
Composición de ADITIVE
Colaboración y revisión:
  • phillipe gomes
82 exhibiciones
    • ½ Tono
    • A
    • Bb
    • B
    • C
    • Db
    • D
    • Eb
    • E
    • F
    • F#
    • G
    • Ab
  • Agregar a la lista
    00:00 / 00:00
    OK