Cifra Club

Oh Darkness

Admiral Freebee

Cifrado: Principal (guitarra y guitarra eléctrica)
Selo Cifra Club: esta cifra foi revisada para atender aos critérios oficiais da nossa Equipe de Qualidade.
tono: B
Tabded by jos

µIntro: (guitar1)
E|-0-0-0-0--0-0-0-0---0--0--0--0--0-0-0-0-----|--0-0-0-0-----|
B|-5-5-5-5--7-7-7-7--12-12-12-12--9-9-9-9-----|--4-5-5-5-----|
G|----------------------------------------(x3)|----------(x4)|    x2 
D|--------------------------------------------|--------------|           
A|--------------------------------------------|--------------|
E|--------------------------------------------|--------------|

Guitar2 (starts playing at the 2 time)
E       B       C#m      A



Verse:

Guitar1:
E|-0-------------0---------|
B|-5---------------4-------|
G|-----(x16)---------(x16)-| x3
D|-------------------------|
A|-------------------------|
E|-------------------------|

Solo

Guitar1:
E|-0-0-0-0--0-0-0-0---0--0--0--0--0-0-0-0-----|--0-0-0-0-----|
B|-5-5-5-5--7-7-7-7--12-12-12-12--9-9-9-9-----|--4-5-5-5-----|
G|----------------------------------------(x3)|----------(x4)|
D|--------------------------------------------|--------------|    
A|--------------------------------------------|--------------|
E|--------------------------------------------|--------------|

Guitar2:
E       B       C#m      A


Verse

Chorus:

E              
Oh darkness, oh darkness 
B
Roll over me tonight
C#m      
Oh darkness, oh darkness
A 
Roll over me tonight 

Verse

Chorus

Bridge:

A     F#m     C#m      C#m 
And I want you 
A             B
To be the fire 
C#m           B
To be the fire 

Chorus

Solo

Outro:

Guitar1:E|-0--------0----------0----------0-|
        B|-5--------7----------9---------12-|
        G|---(x16)----(x16)------(x16)------|
        D|----------------------------------|
        A|----------------------------------|
        E|----------------------------------|
Guitar2:
E       B       A       C#m
Otros videos de esta canción
    64 exhibiciones
      • ½ Tono
      • A
      • Bb
      • B
      • C
      • Db
      • D
      • Eb
      • E
      • F
      • F#
      • G
      • Ab
    • Agregar a la lista

    Afinação da cifra

    Afinador online

      Ops (: Contenido disponible solo en portugués.
      OK