Cifra Club

Trem das Onze

Adoniran Barbosa

Cifrado: Principal (guitarra y guitarra eléctrica)
tono: Am
[Intro] Dm  Bm7(5-)  Am/E  Am  Am/G  F#° 
        F7  E7  E7/B  Am  A7
        Dm  Bm7(5-)  Am/E  Am  Am/G  F#° 
        F7  E7  E7/B  Am  E7

[Tab - Solo Intro]

[Violão 1]

Parte 1 de 6
                 Dm     Bm7(5-) 
E|------------------------------------------|
B|------------------------------------------|
G|------------------------------------------|
D|---------------0--0-----------------------|
A|-0-2-4--0-2-4-------3-2-------------------|
E|------------------------------------------|

Parte 2 de 6
        Am/E       Am  
E|------------------------------------------|
B|------------------------------------------|
G|------------------------------------------|
D|--3-3-2--2-0------------------------------|
A|-------------3-2-0------------------------|
E|------------------------------------------|

Parte 3 de 6
      Am/G  F#°  F7   E7   E7/B  Am  A7
E|------------------------------------------|
B|------------------------------------------|
G|------------------------------------------|
D|------------------------------------------|
A|--0----------------------2--2--0----------|
E|----3--3--2--2-1--1-0--0------------------|

Parte 4 de 6
                 Dm     Bm7(5-) 
E|------------------------------------------|
B|------------------------------------------|
G|------------------------------------------|
D|---------------0--0-----------------------|
A|-0-2-4--0-2-4-------3-2-------------------|
E|------------------------------------------|

Parte 5 de 6
        Am/E       Am  
E|------------------------------------------|
B|------------------------------------------|
G|------------------------------------------|
D|--3-3-2--2-0------------------------------|
A|-------------3-2-0------------------------|
E|------------------------------------------|

Parte 6 de 6
      Am/G  F#°  F7   E7   E7/B  Am  E7
E|------------------------------------------|
B|------------------------------------------|
G|------------------------------------------|
D|------------------------------------------|
A|--0----------------------2--2--0-0--------|
E|----3--3--2--2-1--1-0--0-----------0------|

[Violão 2]

Parte 1 de 4
E|-10--8--7-8-------------------------------|
B|------------10-------10-12-13-10-13-------|
G|---------------9--------------------------|
D|------------------------------------------|
A|------------------------------------------|
E|------------------------------------------|

Parte 2 de 4
E|------------------------------------------|
B|-10-12-13-10-12----9-10-12-9-10-----------|
G|------------------------------------------|
D|------------------------------------------|
A|------------------------------------------|
E|------------------------------------------|

Parte 3 de 4
E|-10--8--7-8-------------------------------|
B|------------10-------10-12-13-10-13-------|
G|---------------9--------------------------|
D|------------------------------------------|
A|------------------------------------------|
E|------------------------------------------|

Parte 4 de 4
E|---------------------------------11h12----|
B|-10-12-13-10-12----9-10-12-9-10-----------|
G|---------------------------------------9--|
D|------------------------------------------|
A|------------------------------------------|
E|------------------------------------------|

[Primeira Parte]

             Am           
Não posso ficar
                          Am/C  Am 
Nem mais um minuto com você

Sinto muito amor
              E7  A7  
Mas não pode ser

 Dm  Bm7(5-)  Am
Moro em Jaça_nã
                    F7
Se eu perder esse trem
          E7           E7/D  
Que sai agora às onze horas
 E7/G#           Am
Só amanhã de manhã

     E                    
Não posso ficar

Nem mais um minuto com você
       Am/C   
Sinto muito amor
              E7  A7  
Mas não pode ser

 Dm  Bm7(5-)  Am
Moro em Jaça_nã
                    F7
Se eu perder esse trem
          E7             
Que sai agora às onze horas
 E7/D   E7/G#    Am
Só amanhã de manhã

[Segunda Parte]

      A/C#        A7
Além disso mulher
            Dm
Tem outra coisa
       D#°
Minha mãe não dorme
                  E7
Enquanto eu não chegar

 Dm  Bm7(5-)  Am/E  Am  Am/G  
Sou filho     único
 F#°   F7    E7    E7/B    Am   
Tenho minha casa pra olhar
             E7
Não posso ficar

[Primeira Parte]

             Am           
Não posso ficar

Nem mais um minuto com você

Sinto muito amor
              E7  A7  
Mas não pode ser

 Dm  Bm7(5-)  Am
Moro em Jaça_nã
                    F7
Se eu perder esse trem
          E7             
Que sai agora às onze horas
 E7/G#  E7       Am
Só amanhã de manhã

[Segunda Parte]

      A/C#        A7
Além disso mulher
            Dm
Tem outra coisa
       D#°
Minha mãe não dorme
                  E7  
Enquanto eu não chegar

 Dm  Bm7(5-)  Am/E  Am  Am/G  
Sou filho     único
 F#°   F7    E7    E7/B    Am   
Tenho minha casa pra olhar
             A7
Não posso ficar

[Final] Dm  Bm7(5-)  Am/E  Am  Am/G  F#° 
        F7  E7  E7/B  Am  A7
        Dm  Bm7(5-)  Am/E  Am  Am/G  F#° 
        F7  E7  E7/B  Am  E7
00:00 / 00:00
Otros videos de esta canción
Repetir
Otros videos de esta canción
Composición de Adoniran Barbosa
18.012 exhibiciones
  • Simplificar cifrado
    • ½ Tono
    • Am
    • Bbm
    • Bm
    • Cm
    • C#m
    • Dm
    • Ebm
    • Em
    • Fm
    • F#m
    • Gm
    • G#m
  • Agregar a la lista
    00:00 / 00:00
    OK