Cifra Club

Trem das Onze

Adoniran Barbosa

Cifrado: Principal (guitarra y guitarra eléctrica)
tono: Dm
[Intro]

E|------------------------------------------|
B|---3-2p1----------------------------------|
G|-2-------3-2p0----------------------------|
D|---------------4-1-0h1p0------------------|
A|--------------------------3p1p0-----------|
E|--------------------------------3---------|
   D7
E|-2----------------------------------------|
B|-1----------------------------------------|
G|-2----------------------------------------|
D|-0-0-2-4-0-2-4-5--------------------------|
A|------------------------------------------|
E|------------------------------------------|
   Dm
E|-1----------------------------------------|
B|-3----------------------------------------|
G|-2-2--------------------------------------|
D|-0--------0-------------------------------|
A|----0-2-4---------------------------------|
E|------------------------------------------|

 Gm     G#º        Dm                   
Zaaam, Zaaam, zam zam zam zam   
Dm/C            E7             A7
    Pascarigudum  pascarigudum
             D7
Pascarigudum

 Gm     G#º        Dm                   
Zaaam, Zaaam, zam zam zam zam   
Dm/C            E7            A7
    Pascarigudum  pascarigudum
            D7
Pascarigudum

[Primeira Parte]

             Dm             
Não posso ficar
                       
Nem mais um minuto com você

Sinto muito amor
         Bb7  A7  Eb7  D7
Mas não pode ser
 Gm  A7      Dm
Moro em Jaçanã
                      Bb7
Se eu perder esse trem
        A7
Que sai agora às onze horas
                 Dm
Só amanhã de manhã

[Segunda Parte]

      D7
Além disso mulher
            Gm
Tem outras coisas
       Bb7
Minha mãe não dorme
                    A7
Enquanto eu não chegar

 Gm  G#º  Dm   Dm/C
Sou filho único
 E7          A7      Dm    
Tenho minha casa pra olhar 
               Eb7(9)
Não posso ficar

[Final]

   Dm            Eb7(9)
E|-1-------------1--------------------------|
B|-3-------------2--------------------------|
G|-2-1p0---------0--------------------------|
D|-0-----4-3-2-1----------------------------|
A|------------------------------------------|
E|------------------------------------------|
Composición de Adoniran Barbosa
16.979 vistas
  • Simplificar cifrado
    • ½ Tono
    • Am
    • Bbm
    • Bm
    • Cm
    • C#m
    • Dm
    • Ebm
    • Em
    • Fm
    • F#m
    • Gm
    • G#m
  • Agregar a la lista

    0 comentarios

    Ver todos los comentarios
    00:00 / 00:00
    Outros vídeos desta música
    Repetir Calidad Automático
    Outros vídeos desta música
    00:00 / 00:00
    Automático
    Capítulos
    • Início
    • Acordes da introdução
    • Tocando a introdução
    • Ensinando a primeira baixaria
    • Ensinando o ritmo (batida) da música
    • Dicas
    • Ensinando a segunda baixaria
    • Ensinando a terceira baixaria
    • Acordes da primeira parte
    • Tocando a primeira parte
    • Dicas
    • Acordes da segunda parte
    • Tocando a segunda parte
    • Ensinando o ritmo da segunda parte
    • Encerramento
    OK