Cifra Club

Devolva-me

Adriana Calcanhotto

Cifrado: Principal (guitarra y guitarra eléctrica)
tono: C
[Intro] C7M  C9  C7M  C9

   C7M     C9
E|-----------------------0------------------|
B|-------0-------3---------------3----------|
G|-----0-------0-------0-------0------------| (2x)
D|---2-------2-------2-------2--------------|
A|-3-------3-------3-------3----------------|
E|------------------------------------------|

(Variação)

   C7M     C9
E|---------------0--------------------------|
B|-------0---------------3------------------|
G|-----0-------0-------0-------0------------|
D|---2-------2-------2-------2---2----------|
A|-3-------3-------3-------3----------------|
E|------------------------------------------|

[Primeira Parte]

Parte 1 De 3

   Dm7              G7
E|-------1-------1-------1-------1----------|
B|-----1-------1-------0-------0------------|
G|---2-------2-------0-------0--------------|
D|-0-------0--------------------------------|
A|------------------------------------------|
E|-----------------3-------3----------------|

Parte 2 De 2

   C9
E|----------------0-------------------------|
B|--------3---------------------------------|
G|------0-------0---------------------------|
D|---2--------2-----------------------------|
A|-3--------3-------------------------------|
E|------------------------------------------|

 Dm7       G7           Dm7    G7         Dm7
Rasgue as minhas cartas e não me procure mais
  G7           C9
Assim será melhor, meu bem

Dm7   G7             Dm7     G7             Dm7
O retrato que eu te dei, se ainda tens não sei
     G7         C9
Mas se tiver devolva-me

[Segunda Parte]

Parte 1 De 4

   E               Am
E|-------------------------------0----------|
B|-------0-------0-------1---------------1--|
G|-----1-------1-------2-------2-------2----|
D|---2-------2-------2-------2-------2------|
A|-----------------0-------0-------0--------|
E|-0-------0--------------------------------|

E|-------0----------------------------------|
B|------------------------------------------|
G|-----2------------------------------------|
D|---2--------------------------------------|
A|-0----------------------------------------|
E|------------------------------------------|

Parte 2 De 4

   Dm7
E|-------1-------1-------1-------1----------|
B|-----1-------1-------1-------1------------|
G|---2-------2-------2-------2--------------|
D|-0-------0-------0-------0----------------|
A|------------------------------------------|
E|------------------------------------------|

Parte 3 De 4

   G7
E|-------1-------1-------1-------1----------|
B|-----0-------0-------0-------0------------|
G|---0-------0-------0-------0--------------|
D|------------------------------------------|
A|------------------------------------------|
E|-3-------3-------3-------3----------------|

Parte 4 De 4

   C9
E|----------------0-------------------------|
B|--------3---------------3-----------------|
G|------0-------0-------0-------------------|
D|---2--------2-------2---------------------|
A|-3--------3-------3-----------------------|
E|------------------------------------------|

 E          Am                        Dm7
Deixe-me sozinho porque assim eu viverei em paz
           G7                       C9
Quero que sejas bem feliz junto do seu novo rapaz

 Dm7       G7           Dm7    G7         Dm7
Rasgue as minhas cartas e não me procure mais
  G7           C9
Assim vai ser melhor, meu bem

[Segunda Parte]

Parte 4 De 4 (Variação)

   C9
E|----------------0-------------------------|
B|--------3---------------3-----------------|
G|------0-------0-------0-------0-----------|
D|---2--------2-------2-------2---2---------|
A|-3--------3-------3-------3---------------|
E|------------------------------------------|

Dm7   G7             Dm7     G7             Dm7
O retrato que eu te dei, se ainda tens não sei
     G7         C9
Mas se tiver devolva-me

   Am
Devolva-me
   F     C9  C7M
Devolva-me

[Final] 

Parte 1 De 4

   C9
E|---------------0---------------0----------|
B|-------3---------------3------------------|
G|-----0-------0-------0-------0------------|
D|---2-------2-------2-------2--------------|
A|-3-------3-------3-------3----------------|
E|------------------------------------------|

Parte 2 De 4

   Am
E|---------------0---------------0----------|
B|-------1---------------1------------------|
G|-----2-------2-------2-------2------------|
D|---2-------2-------2-------2--------------|
A|-0-------0-------0-------0----------------|
E|------------------------------------------|

Parte 3 De 4

   F
E|------------------------------------------|
B|-------1-------1---------1----------------|
G|-----2-------2-------2-----2---2----------|
D|---3-------3-------3---3-----3------------|
A|------------------------------------------|
E|-1-------1-------1------------------------|

Parte 4 De 4

   C9                              C7M
E|---------------0-----------------0--------|
B|-------3---------------3-------3-0--------|
G|-----0-------0-------0-------0---0--------|
D|---2-------2-------2-------2-----2--------|
A|-3-------3-------3-------3-------3--------|
E|------------------------------------------|
Composición de Lilian Knapp / Renato Barros
Colaboración y revisión:
10.181 vistas
    • ½ Tono
    • A
    • Bb
    • B
    • C
    • Db
    • D
    • Eb
    • E
    • F
    • F#
    • G
    • Ab
  • Agregar a la lista

    0 comentarios

    Ver todos los comentarios

    ¿Lograste tocar?

    155 Tocaron 20 Aún no

    ¡Graba un video tocando Devolva-me y envíanoslo!

    00:00 / 00:00
    Outros vídeos desta música
    Repetir Calidad Automático
    Outros vídeos desta música
    00:00 / 00:00
    Automático
    Capítulos
    • Início
    • Tocando a música
    • Acordes Introdução e Primeira Parte
    • Tocando Introdução e Primeira Parte
    • Ensinando Introdução
    • Ensinando Primeira Parte
    • Acordes da Segunda Parte
    • Tocando Segunda Parte
    • Ensinando Segunda Parte
    • Acordes do Parte Final
    • Tocando Parte Final
    • Ensinando Final
    • Encerramento
    OK