Cifra Club

Era Pra Ser

Adriana Calcanhotto

Cifrado: Simplificada (guitarra y guitarra eléctrica)
tono: E (con acordes en la forma de Eb) Capotraste en 1ª casa
[Intro] Em  D  G
        Em  D  G

E|---3-2-0----------------------------------|
B|---------0-3---1-0---1-0h----0-1-3--0-1-3-|
G|-------------------2----------------------|
D|------------------------------------------|
A|------------------------------------------|
E|------------------------------------------|

E|---3-2-0-3--2-0---------------------------|
B|----------------0-3--1-0---0--------------|
G|-------------------------2----------------|
D|------------------------------------------|
A|------------------------------------------|
E|------------------------------------------|

                Am
Era pra ser canção de amor
 D7            G
Era o amor em versos
               Am        D7             G
Era pra ser sobre você e eu e o meu deserto
              Am           D7            G
Era pra ser para você, sempre você, pra sempre
                 Am       D7           G
Era pra poder ficar eternamente no presente

                           C
O amor soprou de outro lugar
     D7      G                   Em7
Pra derrubar o que houvesse pela frente
          Am
Tenho que te falar
         D7                      G       
Que esta canção não fala mais da gente

                Am
Era pra ser canção de amor
 D7            G
Era o amor em versos
               Am        D7             G
Era pra ser sobre você e eu e o meu deserto
              Am           D7            G
Era pra ser para você, sempre você, pra sempre
                 Am       D7           G
Era pra poder ficar eternamente no presente

                           C
O amor soprou de outro lugar
     D7      G                   Em7
Pra derrubar o que houvesse pela frente
          Am
Tenho que te falar
         D7              G       
Que esta canção não fala mais
                           C
O amor soprou de outro lugar
     D7      G                   Em7
Pra derrubar o que houvesse pela frente
          Am
Tenho que te falar
         D7              G       
Que esta canção não..
Composición de Adriana Calcanhotto
Colaboración y revisión:
  • Marcos Lima
2 vistas
    • ½ Tono
    • A
    • Bb
    • B
    • C
    • Db
    • D
    • Eb
    • E
    • F
    • F#
    • G
    • Ab
  • Agregar a la lista

    0 comentarios

    Ver todos los comentarios

    ¿Lograste tocar?

    1 Tocaron 0 Aún no

    ¡Graba un video tocando Era Pra Ser y envíanoslo!

    00:00 / 00:00
    Outros vídeos desta música
    Repetir Calidad Automático
    Outros vídeos desta música
    00:00 / 00:00
    Automático
    OK