Cifra Club

Fico Assim Sem Você

Adriana Calcanhotto

Cifrado: Principal (guitarra y guitarra eléctrica)
Selo Cifra Club: esta cifra foi revisada para atender aos critérios oficiais da nossa Equipe de Qualidade.
tono: Bb (forma dos acordes no tom de A) Capotraste na 1ª casa
[Intro] A  C#m7  D  E7 
        A  C#m7  D  E7 

[Dedilhado - Intro]

Parte 01 de 02
   A           C#m7        D
E|---0---0-------4---4-------2---2----------|
B|---2---2-------5---5-------3---3----------|
G|---2---2---2---4---4---4---2---2---2------|
D|-------------------------0---0---0--------|
A|-0---0---0---4---4---4--------------------|
E|------------------------------------------|

Parte 02 de 02
   E7
E|------------------------------------------|
B|---0---0----------------------------------|
G|---1---1----------------------------------|
D|---0---0---0------------------------------|
A|------------------------------------------|
E|-0---0---0--------------------------------|

Parte 01 de 02
   A           C#m7        D
E|---0---0-------4---4-------2---2----------|
B|---2---2-------5---5-------3---3----------|
G|---2---2---2---4---4---4---2---2---2------|
D|-------------------------0---0---0--------|
A|-0---0---0---4---4---4--------------------|
E|------------------------------------------|

Parte 02 de 02
   E7
E|------------------------------------------|
B|---0---0----------------------------------|
G|---1---1----------------------------------|
D|---0---0---0------------------------------|
A|------------------------------------------|
E|-0---0---0--------------------------------|

[Primera Parte]

A               C#m7
Avião sem asa, fogueira sem brasa
    D               E7
Sou eu assim sem você
 A                 C#m7
Futebol sem bola, piu-Piu sem frajola
    D               E7
Sou eu assim sem você

[Segunda Parte]

[Tab - Segunda Parte]

             F#m7        B7
E|---------------------------2---2----------|
B|---0---0-------2---2-------4---4----------|
G|---1---1-------2---2-------2---2---2------|
D|---0---0---0---2---2---2------------------|
A|-------------------------2---2---2--------|
E|-1---1---1---2---2---2--------------------|

        D                    E7
Por que é que tem que ser assim?
                       F#m7
Se o meu desejo não tem fim
        B7
Eu te quero a todo instante

Nem mil alto-falantes
 E7
Vão poder falar por mim

[Terceira Parte]

  A
Amor sem beijinho
    C#m7
Buchecha sem Claudinho
    D               E7
Sou eu assim sem você
 A                    C#m7
Circo sem palhaço, namoro sem amasso
    D               E7
Sou eu assim sem você
    D                   E7
Tô louca pra te ver chegar
                       F#m7
Tô louca pra te ter nas mãos
    B7
Deitar no teu abraço, retomar o pedaço
     E7
Que falta no meu coração

[Refrão]

[Tab - Refrão]

   A      C#7
E|---0-------4------------------------------|
B|---2-------6-------0---0---0---0----------|
G|---2-------4-------1---1---1---1----------|
D|-------------------0---0---0---0----------|
A|-0---0---4---4----------------------------|
E|-----------------0---0---0---0------------|

         F#m7             C#m7
Eu não existo longe de você
         D                     A  C#7
E a solidão é o meu pior castigo
             F#m7               C#m7
Eu conto as horas pra poder te ver
         D                 E7
Mas o relógio tá de mal comigo

Por que? Por que?

[Quarta Parte]

 A                    C#m7
Neném sem chupeta, Romeu sem Julieta
    D               E7
Sou eu assim sem você
 A                      C#m7
Carro sem estrada, queijo sem goiabada
    D               E7
Sou eu assim sem você
        D                    E7
Por que é que tem que ser assim?
                       F#m7
Se o meu desejo não tem fim
        B7
Eu te quero a todo instante

Nem mil alto-falantes
 E7
Vão poder falar por mim

[Refrão Final]

[Tab - Refrão Final]

E|---------------------------0--------------|
B|---0---0---0---0---0---0---2--------------|
G|-----1---1---1---1---1---1-2--------------|
D|---------------------------2--------------|
A|---------------------------0--------------|
E|------------------------------------------|

         F#m7             C#m7
Eu não existo longe de você
         D                     A  C#7
E a solidão é o meu pior castigo
             F#m7               C#m7
Eu conto as horas pra poder te ver
         D                 E7
Mas o relógio tá de mal comigo

         F#m7             C#m7
Eu não existo longe de você
         D                     A  C#7
E a solidão é o meu pior castigo
             F#m7               C#m7
Eu conto as horas pra poder te ver
         D                 E7  A
Mas o relógio tá de mal comigo
Otros videos de esta canción
    43.779 exhibiciones
    • Simplificar cifrado
      • ½ Tono
      • A
      • Bb
      • B
      • C
      • Db
      • D
      • Eb
      • E
      • F
      • F#
      • G
      • Ab
    • Agregar a la lista

    Afinação da cifra

    Afinador online

      Capítulos
      • Início
      • Acordes da introdução
      • Tocando a introdução
      • Ensinando o ritmo da introdução
      • Tocando uma 2ª opção de ritmo para música
      • Ensinado a 2ª opção de ritmo
      • Acordes e ritmo da primeira parte
      • Tocando a primeira parte
      • Acordes da segunda parte
      • Tocando a segunda parte
      • Ensinando o ritmo da segunda parte
      • Acordes do refrão
      • Tocando o refrão
      • Ensinando o ritmo do refrão
      • Tocando o final da música
      • Ensinando o ritmo do final
      • Encerramento
      Ops (: Contenido disponible solo en portugués.
      OK