Cifra Club

Adams Apple

Aerosmith

Tablatura: Versão 4 (guitarra)
Já pensou em usar uma coleção de roupas do Cifra Club? Responda as perguntas abaixo e nos ajude nessa missão! →
tono: A
Aerosmith - Adam's Apple
Intro: 
E.|--------------------------------------------------------------|
B.|--------------------------------------------------------------|
G.|--------------------------------------------------------------|
D.|-----------2--------------------------2-------------------------|
A.|-0/2/0---------3/0---------0/2/0--------3/0----------------------|       
E.|---------------------------------------------------------------|

E.|--------------------------------------------------------------|
B.|--------------------------------------------------------------|
G.|--------------------------------------------------------------|
D.|------------2---------------------2-----------------------------|
A.|-0/2/0----------3/0-----0/2/0----------------------------------------------|
E.|------------------------------------------0---------2------------|

E.|--------------------------------------------------------------|
B.|--------------------------------------------------------------|
G.|--------------------------------------------------------------|
D.|-----------2--------------------------2-------------------------|
A.|-0/2/0---------3/0---------0/2/0--------3/0----------------------|       
E.|---------------------------------------------------------------|

E.|--------------------------------------------------------------|
B.|--------------------------------------------------------------|
G.|--------------------------------------------------------------|
D.|------------2---------------------2-----------------------------|
A.|-0/2/0----------3/0-----0/2/0----------------------------------------------|
E.|---------------------------------------------------------------|






A5                      
Back when Cain was able
Way before the stable
                                                D5   C#5   B5 
Lighting struck right down from the sky
B5                                                   E      (INTRO) x2 1° BLOCO
A mother ship with fate said let's give it a try
A5
Conscience was related
Man he was created
                               D5        C#5   B5
Lady luck took him by surprise
B5                                                       E
A sweet and bitter fruit it surely opened his eyes
        D
Well she ate it
Bm                            A    (1° BLOCO) x2
Lordy it was love at first bite
D
Well she ate it
Bm                                C#m         A      (INTRO) x4 1° Bloco
Never knowin wrong from right right right
A5
Even Eve in Eden
Voices tried deceiving
                                             D5    C#5 B5
With lies that showed the lady the way
B5                                                        E             1st block of int.
At first she stopped and turned and tried to walk away
A5
Man he was believer
Lady was deceiver
                                  D5    C#5  B5
So the story goes but you see
B5                                                           E
The snake was he and she just climbed right up his tree

D
So she ate it
Bm                            A
Lordy it was love at first bite


D
Well she ate it
Bm                         C#m              A           
Never knowin wrong from right right right

Solo

(A    E     A    E)   ( A   D    Bm   F#m   E)

(A    E     A    E)   ( A   D    Bm   F#m   E)

(A    E     A    E)  

E.|-----------------7/7/7/7/5-----10/10/10/10/9/7/5-------|
B.|-7/7/7/7/5---------------------------------------------|
G.|-----------------------------------------------|
D.|-----------------------------------------------|
A.|-----------------------------------------------|
E.|------------------------------------------------|

E.|-----------------5/------------------------|

B.|—7/5-----5/7-------7/5--------------------------|
G.|--------6-----------------6/4-2--------------|
D.|------------------------------------4/4/2-----|
A.|-----------------------------------------|
E.|-----------------------------------------|

E.|-----------------7/7/7/7/5-----10/10/10/10/9/7/5-------|
B.|-7/7/7/7/5---------------------------------------------|
G.|-----------------------------------------------|
D.|-----------------------------------------------|
A.|-----------------------------------------------|
E.|------------------------------------------------|


E.|----------------- 5/------------------------|
B.|—7/5-----5/7-------7/5--------------------------|
G.|--------6-----------------6/4-2--------------|
D.|-----------------------------------4/4/2------|
A.|-------------------------------------------4/2/0----------|
E.|-----------------------------------------|



E.|--------------7/7/7/7/5—10/10/10/10/9/7------------------------|
B.|-7/7/7/7/5------------------------------------10/7----|
G.|-----------------------------------------------------9/—|
D.|---------------------------------------------------------11-|
A.|-----------------------------------------|
E.|-----------------------------------------|

E.|-----------------------------------------|
B.|-----------------------------------------|
G.|-----------------------------------------|
D.|-11/9---------------------------------------|
A.|----------11/9/7/5-------------------------------|
E.|----------------------7/5------0-------------|

E.|----------7/10----12/14/14/14/14---------------------------|
B.|-7/10------------------------------12/14-12/14--------|
G.|-----------------------------------------|
D.|-----------------------------------------|
A.|-----------------------------------------|
E.|-----------------------------------------|

E.|------------------7/7/7/7/5----10/9/7/5-------------------|
B.|—7/7/7/7/5--------------------------------------|
G.|-----------------------------------------|
D.|-----------------------------------------|
A.|-----------------------------------------|
E.|-----------------------------------------|


E.|-----------------------------------------|
B.|-----------------------------------------|
G.|-----------------------------------------|
D.|-------------2/----------------------------|
A.|—0/2/0-------3/0-------------------------------|
E.|-----------------------------------------|

E.|-----------------------------------------|
B.|-----------------------------------------|
G.|-----------------------------------------|
D.|------------2/-----------------------------|
A.|-0/2/0---------3/0------------------------------|
E.|-----------------------------------------|

E.|-----------------------------------------|
B.|-----------------------------------------|
G.|-----------------------------------------|
D.|-----------2/------------------------------|
A.|-0/2/0---------------------------------------|
E.|---------------0-----2---------------------|




A5
Conscience was related
Man he was created
                                     D5          C#5   B5
When lady luck took him by surprise
B5                                                     E                        ( A    E )x2 
 The sweet and bitter fruit it surely opened his eyes

A5
Evil came like reignin
Who knows who's to blamin
                                       D5    C#5   B5
Something tried to lay her to waste
B5                                                    E
And all she want and need was just a little taste
           D
Whooa, she ate it
Bm                             A
Lordy it was love at first bite
D
Well she ate it
Bm                        C#m               
Never knowin wrong from right right right
D
Well she ate it
Bm                             A
Lordy it was love at first bite
D           
Yeah she ate it
Bm                       C#m          A
Never knowin wrong from right right

Oh that's right
Base sobre a introdução 

(A    E    A    E)     ( A )
Composição de Steven Tyler
Colaboración y revision:
  • eduardo martins
11 reproducciones
    • ½ Tono
    • A
    • Bb
    • B
    • C
    • Db
    • D
    • Eb
    • E
    • F
    • F#
    • G
    • Ab
  • Adicionar à lista

    0 comentarios

    Ver todos os comentários

    ¿Conseguiste tocar?

    0 Tocaram 0 Ainda não

    Grave um vídeo tocando Adams Apple e nos envie!

    00:00 / 00:00
    outros vídeos desta música
    repetir qualidade Automático
    Outros vídeos desta música
    00:00 / 00:00
    Automático
    OK