Cifra Club

Crazy

Aerosmith

Cifrado: Principal (guitarra y guitarra eléctrica)
Selo Cifra Club: esta cifra foi revisada para atender aos critérios oficiais da nossa Equipe de Qualidade.
tono: A
Come here, baby

[Intro] A  F#m  D  Dm 
        A  F#m  D  Dm 

You know you drive me up a wall

The way you make good on

All the nasty tricks you pull

Seems like we're makin' up

More than we're makin' love

And it always seems

You got somn' on your mind

Other than me

Girl, you got to change

Your crazy ways

You hear me

[Primeira Parte]

A
  Say you're leavin'
D
On a seven thirty train
                 F#m
And that you're headin'
             D  
Out to Hollywood

[Tab - Riff 1 - Guitarra 1]

E|-----------------------------------------------------|
B|--------3--3--3--2~----------------------------------|
G|-----2--4--2--2--2~----------------------------------|
D|-/4--------------------------------------------------|
A|-----------------------------------------------------|
E|-----------------------------------------------------|

[Tab - Riff 1 - Guitarra 2]

E|-----------------------------------------------------|
B|-----------------------------------------------------|
G|-----2--------2--2-----------------------------------|
D|-/4--------4-----------------------------------------|
A|-----------------------------------------------------|
E|-----------------------------------------------------|

A                        D
  Girl, you been givin' me

That line so many times
              F#m
It kinda gets     like feelin'
           D
Bad looks good

[Pré-Refrão]

[Tab - Pré-Refrão]

           E
E|------------0----------------------------------------|
B|------------0----------------------------------------|
G|---------------1-------------------------------------|
D|---------------2-------------------------------------|
A|-----0-----------------------------------------------|
E|-0h2---2-0--------2b--x--2b--------------------------|

   F#m
E|-----------------------------------------------------|
B|--------2-4-4b5r4p2----------------------------------|
G|--------2-4-4b5r4p2----------------------------------|
D|----2-4--------------4-------------------------------|
A|-----------------------------------------------------|
E|-2---------------------------------------------------|

   G
E|--------7-----7--------------------------------------|
B|-3---------------------------------------------------|
G|-0--/7-----------7-----------------------------------|
D|-0---------------------------------------------------|
A|-----------------------------------------------------|
E|-3---------------------------------------------------|

   D
E|------14------14------14\----------------------------|
B|-----------------------------------------------------|
G|-/14------14------14---------------------------------|
D|-----------------------------------------------------|
A|-----------------------------------------------------|
E|-----------------------------------------------------|
   E
E|----0------------------------------------------------|
B|----0------------------------------------------------|
G|-------1---------------------------------------------|
D|-------2---------------------------------------------|
A|-----------------------------------------------------|
E|-0--------2b--x--2b----------------------------------|

   F#m
E|-----------------------------------------------------|
B|------------4b5r4------------------------------------|
G|--------2-4-4b5r4p2----------------------------------|
D|----2-4--------------4-------------------------------|
A|-----------------------------------------------------|
E|-2---------------------------------------------------|

   G
E|--------3------7-------------------------------------|
B|-3---------------------------------------------------|
G|-0--/4-----/7-----7----------------------------------|
D|-0---------------------------------------------------|
A|-----------------------------------------------------|
E|-3---------------------------------------------------|

   D            E
E|------14-----------16--------------------------------|
B|-----------------------------------------------------|
G|-/14------14--/16------16----------------------------|
D|-----------------------------------------------------|
A|-----------------------------------------------------|
E|-----------------------------------------------------|

   A
E|----------17-----------------------------------------|
B|-17-------17-----------------------------------------|
G|-16b18-----------------------------------------------|
D|-----------------------------------------------------|
A|-----------------------------------------------------|
E|-----------------------------------------------------|

E             F#m
  That kinda lovin'
         G         D   E
Turns a man to a slave
            F#m
That kinda lovin'
         G                 D   E
Sends a man right to his grave

[Refrão]

       A
I go crazy
  F#m
Crazy
 D  
Baby
       Dm  A
I go crazy
            F#m
You turn it on
             D
Then you're gone
      E
You drive me

  A
Crazy
  F#m
Crazy
  D  
Crazy
         Dm  Bm 
For you baby
            E        C#m
What can I do, honey
                 F#m  E    D  Dm
I feel like the co___lor blue

[Segunda Parte]

A                     D
   You're packin' up your stuff

And talkin' like it's tough
      F#m
And tryin' to tell me
                   D  
That it's time to go

[Tab - Riff 2]

E|-----------------------------------------------------|
B|------2-------------2----2---------------------------|
G|------2--4--4b5--4--2h4--2---------------------------|
D|-/4--------------------------------------------------|
A|-----------------------------------------------------|
E|-----------------------------------------------------|

A
  But I know
           D
You ain't wearin' nothin'
                     F#m
Underneath that overcoat
                 D
And it's all a show

[Pré-Refrão]

[Tab - Pré-Refrão]

E|-----------------------------------------------------|
B|-----------------------------------------------------|
G|-----2--2h4--2---------------------------------------|
D|-/4-------------2h4--2-------------------------------|
A|-----------------------------------------------------|
E|-----------------------------------------------------|

   E
E|----0------------------------------------------------|
B|----0------------------------------------------------|
G|-------1---------------------------------------------|
D|-------2---------------------------------------------|
A|-----------------------------------------------------|
E|-0--------2b--x--2b----------------------------------|

   F#m
E|------------------------2----------------------------|
B|--------2-4-4b5r4-------2----------------------------|
G|--------2-4-4b5r4p2----------------------------------|
D|----2-4--------------4-------------------------------|
A|-----------------------------------------------------|
E|-2---------------------------------------------------|

   G
E|-3---------7-----------------------------------------|
B|-3---------------------------------------------------|
G|----4--/7-----7--------------------------------------|
D|-----------------------------------------------------|
A|-----------------------------------------------------|
E|-----------------------------------------------------|

   D
E|------14----14----14----14----14---------------------|
B|-----------------------------------------------------|
G|-/14-----14----14----14----14----14------------------|
D|-----------------------------------------------------|
A|-----------------------------------------------------|
E|-----------------------------------------------------|

   E
E|----0------------------------------------------------|
B|----0------------------------------------------------|
G|-------1---------------------------------------------|
D|-------2---------------------------------------------|
A|-----------------------------------------------------|
E|-0--------2b--x--2b----------------------------------|
   F#m
E|------------------------2----------------------------|
B|--------2-4-4b5r4-------2----------------------------|
G|----2---2-4-4b5r4p2-----2----------------------------|
D|----2h4--------------4-------------------------------|
A|-----------------------------------------------------|
E|-2---------------------------------------------------|

   G
E|-3-------7------7------------------------------------|
B|-3---------------------------------------------------|
G|----4/7-----/7---------------------------------------|
D|-----------------------------------------------------|
A|-----------------------------------------------------|
E|-----------------------------------------------------|

   D                  E
E|--------14----14--------16----16----16---------------|
B|-----------------------------------------------------|
G|-/14-14----14----14-/16----16----16------------------|
D|-----------------------------------------------------|
A|-----------------------------------------------------|
E|-----------------------------------------------------|

   A
E|----------17-----------------------------------------|
B|-17-------17-----------------------------------------|
G|-16b18-----------------------------------------------|
D|-----------------------------------------------------|
A|-----------------------------------------------------|
E|-----------------------------------------------------|

E               F#m
  That kind of lovin'
                G
Makes me wanna pull
           D   E
Down the shade
              F#m
That kind of lovin'
         G
Now I'm never, never, never, never
 D                E
Gonna be the same

[Refrão]

       A
I go crazy
  F#m
Crazy
 D   
Baby
       Dm  A
I go crazy
            F#m
You turn it on
             D
Then you're gone
      E 
You drive me

  A
Crazy
  F#m
Crazy
  D
Crazy
         Dm  Bm
For you baby
            E        C#m
What can I do, honey
                 F#m  E    D  Dm  A
I feel like the co___lor blue
               F#m
I'm losin' my mind, girl
       D           E
'Cause I'm goin' crazy

[Solo] A  F#m  D  Dm
       A  F#m  D  E
       A  F#m  D  Dm
       A  F#m  D  E

[Tab - Solo]

E|-----------------------------------------------------|
B|-----------------------------------------------------|
G|-----------------------------------------------------|
D|----------------------------------------4br--4brp2---|
A|-2b--2b--2b--2b--2b--2b--2b--2b--2brp0---------------|
E|-----------------------------------------------------|

E|----------------------------2------------------------|
B|-----------------------------------2-5-5b7~----------|
G|-----2-4b6--b7r4--2-4-2--2----4b6--------------------|
D|-2h4-------------------------------------------------|
A|-----------------------------------------------------|
E|-----------------------------------------------------|

E|-7b9~----5---8b10----7b9--b9r7--5--------------------|
B|-----------5-----------------------------------------|
G|-----------------------------------------------------|
D|-----------------------------------------------------|
A|-----------------------------------------------------|
E|-----------------------------------------------------|

E|-----5-5--5-----5-5--5-----5-5--5-----5-5/-----------|
B|-5h7--------5h7--------5h7--------5h7----/-----------|
G|-----------------------------------------------------|
D|-----------------------------------------------------|
A|-----------------------------------------------------|
E|-----------------------------------------------------|

E|-10----10----10----10----10----10---/----------------|
B|----------------------------------10/----------------|
G|----10----10----10----10----10----10/----------------|
D|-----------------------------------------------------|
A|-----------------------------------------------------|
E|-----------------------------------------------------|

E|-17----17----19b21r~---------------------------------|
B|----17----17-----------------------------------------|
G|-----------------------------------------------------|
D|-----------------------------------------------------|
A|-----------------------------------------------------|
E|-----------------------------------------------------|

E|-14---------14---------------------------------------|
B|----17b19~~----17-14---------------------------------|
G|---------------------16b18~~--------14-16-14b16------|
D|------------------------------14h16------------------|
A|-----------------------------------------------------|
E|-----------------------------------------------------|

E|-----------------------------------------------------|
B|-----------17b19~~r17p14----14-----------------------|
G|-b16r14------------------16----16b18~----------------|
D|--------16-------------------------------------------|
A|-----------------------------------------------------|
E|-----------------------------------------------------|

E|-17----17----17----17----17----17----17--22b24-------|
B|----17----17----17----17----17----17-----------------|
G|-----------------------------------------------------|
D|-----------------------------------------------------|
A|-----------------------------------------------------|
E|-----------------------------------------------------|

E|-22b24----b24r22--17~--------------------------------|
B|-----------------------------------------------------|
G|-----------------------------------------------------|
D|-----------------------------------------------------|
A|-----------------------------------------------------|
E|-----------------------------------------------------|

E|--------12--------12--------12--------12--------12---|
B|-15b17-----15b17-----15b17-----15b17-----15b17-------|
G|-----------------------------------------------------|
D|-----------------------------------------------------|
A|-----------------------------------------------------|
E|-----------------------------------------------------|

E|--------12--------12--------12-----------------------|
B|-15b17-----15b17-----15b17---------------------------|
G|-----------------------------------------------------|
D|-----------------------------------------------------|
A|-----------------------------------------------------|
E|-----------------------------------------------------|

[Ponte]

[Tab - Ponte]

E|-----------------------------------------------------|
B|-15b17----b17r15----14b15~---------------------------|
G|-----------------------------------------------------|
D|-----------------------------------------------------|
A|-----------------------------------------------------|
E|-----------------------------------------------------|

E|-----------------------------------------------------|
B|-15b17----b17r15b17r15b17r15----14b15~---------------|
G|-----------------------------------------------------|
D|-----------------------------------------------------|
A|-----------------------------------------------------|
E|-----------------------------------------------------|

F#m    E         D          F#m
    I need your love, honey
   E         D
I need your love

[Refrão]

  A
Crazy
  F#m
Crazy
  D
Crazy
         Dm  A
For you baby
               F#m
I'm losin' my mind
           D           E
Girl cause I'm goin' crazy

  A
Crazy
  F#m
Crazy
  D
Crazy
         Dm  A
For you baby
            F#m
You turn it on
             D
Then you're gone
      E
You drive me

[Final] A  F#m  D  Dm
        A  F#m  D  E
        A  F#m  D  Dm
        A  F#m  D  E


[Tab - Final - Guitarra 1]

E|------17---------19---------21-----------------------|
B|-----------------------------------------------------|
G|-/17--------/19------19/21---------------------------|
D|-----------------------------------------------------|
A|-----------------------------------------------------|
E|-----------------------------------------------------|

[Tab - Final - Guitarra 2]

E|----------------------------22b24~--22b24...---------|
B|-14--15--17b19r17----15/17---------------------------|
G|-----------------------------------------------------|
D|-----------------------------------------------------|
A|-----------------------------------------------------|
E|-----------------------------------------------------|

E|-17----19b21----17---------14------------------------|
B|----17-------------17\14------14---------------------|
G|---------------------------------14~-----------------|
D|-----------------------------------------------------|
A|-----------------------------------------------------|
E|-----------------------------------------------------|
Otros videos de esta canción
    633.460 exhibiciones
    • Simplificar cifrado
      • ½ Tono
      • A
      • Bb
      • B
      • C
      • Db
      • D
      • Eb
      • E
      • F
      • F#
      • G
      • Ab
    • Agregar a la lista

    Afinación de cifrado

    Afinador online

      Capítulos
      • Apresentação
      • Configurações dos Equipamentos
      • Ensinando a Introdução
      • Explicando a Primeira Parte
      • Tocando a Primeira Parte
      • Ensinando a Primeira Parte
      • Explicando o Pré-Refrão
      • Ensinando o Pré-Refrão
      • Explicando o Refrão
      • Tocando o Refrão
      • Ensinando o Refrão
      • Explicando a Segunda Parte
      • Tocando a Segunda Parte
      • Ensinando a Segunda Parte
      • Tocando o Pré-Refrão 2
      • Ensinando o Pré-Refrão 2
      • Explicando o Refrão 2 e o Solo
      • Ensinando o Solo da Música
      • Explicando a Ponte
      • Tocando a Ponte
      • Explicando o Final da Música
      • Tocando o Final da Música
      • Encerramento
      OK