Cifra Club

Aprenda

Devil's Got a New Disguise

Aerosmith

Tablatura: Principal (guitarra)
tono: C
(Perry, Tyler, Warren)

STANDARD E TUNNING

E|---2-5---2-5----|
Sweet Susie Q 
She was a rebel 
E|---1-5---1-5----|
No angel wings
E|---0-5---0-5----| 
Born like the devil 

E|---2-5---2-5----|
She was so hot 
So cool and nasty 
E|---1-5---1-5----|
Believe it or not 
E|---0-5---0-5----|
Here's what she asked me... 

A
'If you need love 
With no condition 
Let's do the Do honey 
                Em G 
I'm on a mission' 

D
The girl's so bitchin' 
F
My backbone's twitchin' 
Bb
Cause down in Hell's kitchen 
C                             D C G F
The Devil's Got a New Disguise 
D
I'm on a mission 
F
A proposition 
Bb
It's intuition 
C                                C D C D C D C D
Cause the Devil's Got a New Disguise 


E|---2-5---2-5----|
If you see Kay (F.U.C.K.)
Tell her I love her 
E|---1-5---1-5----|
She did me in 
E|---0-5---0-5----|
But I'll recover 
E|---2-5---2-5----|
She said love 
Was her desire 
E|---1-5---1-5----|
All that she touched 
E|---0-5---0-5----|
She set on fire 

A
She was so diss 
I couldn't slake her 
She blew a kiss 
                 Em G
I threw the dagger 


The girl's so bitchin' 
My backbone's twitchin' 
Cause down in Hell's kitchen 
The Devil's Got a New Disguise 
I'm on a mission 
A proposition 
It's intuition 
Cause the Devil's Got a New Disguise 

E                                 A
We came from the wrong side of town
D                               E 
Got nothin' to lose when you're upside down 
E                             A
We gotta get out of this place 
D
Got nothin' to lose girl 

E|---2-5---2-5----|
It ain't no surprise 
When your big ol' silver eyes 
E|---1-5---1-5----|
Got me feelin' tranquilized 
E|---0-5---0-5----|
When she lets me have her prize 
E|---2-5---2-5----|
Cause Monday night 
She's Tuesday wild
E|---1-5---1-5----| 
On Wednesday night 
E|---0-5---0-5----|
She's Thursday's child 

A
But Friday night, night, night, night, night, night, night 
You gotta give me all of your love 

SOLO:

e|------10-----10-----10-----10-----13p10----10-----13b-13v-
B|--13b----13b----13b----13b----13b-------13----13b---------
G|----------------------------------------------------------
D|----------------------------------------------------------
A|----------------------------------------------------------
E|----------------------------------------------------------

----10h13p10------------
-------------13b--------
------------------------
------------------------
------------------------
------------------------

e|--------10-10-10v------------------------------------------------
B|--10h13------------10-13p10----10-13p10-----------------12p10----
G|----------------------------12----------12b-12----10----12p10----
D|-----------------------------------------------------12-------12-
A|-----------------------------------------------------------------
E|-----------------------------------------------------------------

----------------------
-10----10-12br-p10----
-10----10-12br-p10----
----12-------------12-
----------------------
----------------------

e|--------------------------------------------
B|--10-12br-p10-----10----12----10--12-12-10/-
G|--10-12br-p10-----10----12----10--12-12-10/-
D|---------------12----12----12---------------
A|--------------------------------------------
E|--------------------------------------------

e|-----------------------------------------
B|-----------------------------------------
G|-----------------------------------------
D|-10p12----10-----------------------------
A|-------12----12--12p10----12p10----------
E|-----------------------12-------12v------

e|-------------------------------------------
B|--10-13~~~~~-10-----------------------13V--
G|--10-12b--r--10-12v-12p10----10-12/14------
D|--------------------------12---------------
A|-------------------------------------------
E|-------------------------------------------

e|-----------------------------------------------
B|--13v13v13v13v13v13----------------------------
G|--14v14v14v14v14v14-15b-15b-15b-13----15----13-
D|-----------------------------------14----14----
A|-----------------------------------------------
E|-----------------------------------------------

    C  D    C D    C  D  C  D 
e|------------------------------
B|--15-15--13-15---13-15-13-15--
G|------------------------------
D|------------------------------
A|------------------------------
E|------------------------------

E                                   A
We came from the wrong side of town 
D                                 E
Got nothin' to lose when you're upside down 
E                                D
We lived on the side of the tracks
D                                 E 
Got laid in the shed of an old smokestack 
E                           A
We gotta get outta this place 
D                           E
Or we got a heel gonna smash your face 
E                                A
We came from the wrong side of town 

D
The girl's so bitchin' 
F
My backbone's twitchin' 
Bb
Cause down in Hell's kitchen 
C                           D C G F
The Devil's Got a New Disguise 
D
I'm on a mission 
F
A proposition 
Bb
It's intuition 
C                            D C G F
Cause the Devil's Got a New Disguise 

-----------------
b - bend
r - release bend
~ - let ring
v - vibrato
-----------------
Composição de Perry, Tyler, Warren
Colaboración y revision:
  • Pedro Fortes
  • Guilherme Peres
70 reproducciones
    • ½ Tono
    • A
    • Bb
    • B
    • C
    • Db
    • D
    • Eb
    • E
    • F
    • F#
    • G
    • Ab
  • Adicionar à lista

    0 comentarios

    Ver todos os comentários

    ¿Conseguiste tocar?

    0 Tocaram 0 Ainda não

    Grave um vídeo tocando Devil's Got a New Disguise e nos envie!

    00:00 / 00:00
    outros vídeos desta música
    repetir qualidade Automático
    Outros vídeos desta música
    00:00 / 00:00
    Automático
    OK