Cifra Club

Aprenda

Dude Looks Like A Lady Solo

Aerosmith

Tablatura: Principal (guitarra)
tono: G

                             DUDE_LOOKS_LIKE_A_LADY


  W          W          W          S S E Q  E S S S S E
|----------|----------|----------|-----------------------|
|----------|----------|----------|-----------------------|
|----------|----------|----------|------------2-0-2-0-0--|
|----------|----------|----------|-----------------------|
|----------|----------|----------|-0---0-3--0------------|
|----------|----------|----------|-----------------------|

  S S S S E S S  S S  S S  S S E
|--------------------------------|
|-1------------------------------|
|---2-0-----5--------------------|
|-------4-5---7----------------7-|
|--------------------------------|
|---------------10-7-10-7-10-7---|

  S S E  Q  E E E E   S S E +E  E S S S S E E
|-------------------|--------------------------|
|-------------------|--------------------------|
|-------------------|-------------2-0-0-0-0-2--|
|-------------7-----|--------------------------|
|-------------------|-----3-(3)-0--------------|
|-7---7-10--7---2-5-|-2-0----------------------|

  S S S S S S S S +S  E. E S S   E S S E E E E S S E   E E S S S S E S S E E
|------------------------0-3-3-|---------------------|-0---0-0-0-----0---0----|
|-1---1---4-5---3-(3)-1--1-5-5-|-5-7---7-5-5-5-3-1---|-1---1-1-1-----1-1-1----|
|---------4---5-4-(4)-2--------|---7---7-5-5-5-----2-|------------------------|
|------------------------------|---------------------|---2---------2-------2--|
|------------------------------|---------------------|------------------------|
|------------------------------|---------------------|------------------------|

  S S E E E E E E E   E S S S S  E S S E Q     E  E  +E   S S  E  S  S  E  E
|-------------------|-0-8-8-8------8-8-8-8--|--------------------------------|
|-3---3-1-3-3-1-3-1-|-1-8-8-8------8-8-8-8--|--------------------10-10-10----|
|-2---2---2-2---2-2-|------------9----------|------------------9--9--9--9--9-|
|-------------------|-----------10----------|-10-12-(12)-10---10----------10-|
|-------------------|-----------------------|-12-12-(12)---------------------|
|-------------------|-----------------------|--------------------------------|

  E S S S S S S E E S S E    E S S S S  E S S E  S  S  S  S
|-------------------8-8-8-|----8-8-8------8-8-8-10-12-10-12-|
|-----------------5-8-8-8-|----8-8-8------8-8-8-------------|
|---7-5---7-5---5-5-------|--9----------9-------------------|
|-7-7-7-7-7-7-7-7---------|-10---------10-------------------|
|-------------------------|---------------------------------|
|-------------------------|---------------------------------|

   S  S  S  S  E  E  S  S  E  S  S  S  S
|-17----17-------17-15-------17----15-17-|
|----17----17-17-------17-17----17-------|
|----------------------------------------|
|----------------------------------------|
|----------------------------------------|
|----------------------------------------|

   E  E  +S   S  E  E  E  S  E.    E  E  S  E.  S  S  S  S  S  S  S S
|----17-(17)-17----17----15-----|-17-17-15-----17----15----15----15----|
|-17------------17----17----17--|-17-------17-----17----17----17-------|
|-------------------------------|--------------------------------------|
|-------------------------------|--------------------------------------|
|-------------------------------|--------------------------------------|
|-------------------------------|--------------------------------------|

   E  S  S  +S   S  E  S  E  S  E  S S   W          W          W
|-15-17-15-(15)-17-15-17-15-17-15-15---|----------|----------|------|
|--------------------------------------|----------|----------|------|
|--------------------------------------|----------|----------|------|
|--------------------------------------|----------|----------|------|
|--------------------------------------|----------|----------|------|
|--------------------------------------|----------|----------|------|

This has been needed on here for ages! Enjoy people! (*)
Composição de Joe Perry / Sérgio Bittencourt / Steven Tyler
111 reproducciones
    • ½ Tono
    • A
    • Bb
    • B
    • C
    • Db
    • D
    • Eb
    • E
    • F
    • F#
    • G
    • Ab
  • Adicionar à lista

    0 comentarios

    Ver todos os comentários

    ¿Conseguiste tocar?

    0 Tocaram 0 Ainda não

    Grave um vídeo tocando Dude Looks Like A Lady Solo e nos envie!

    00:00 / 00:00
    outros vídeos desta música
    repetir qualidade Automático
    Outros vídeos desta música
    00:00 / 00:00
    Automático
    OK