Cifra Club

Aprenda

Full Circle

Aerosmith

Tablatura: Principal (guitarra)
tono: A
(intro)

E|----------3---|
B|----------3---|
G|-------4------|
D|-3--4--5------|
A|-3--4--5------|
E|-1--2--3------|

E|----------------------|---------------|---------------|
B|----------------------|---------------|---------------|
G|----------------------|---------------|---------------|  
D|-5---5--7--9--9--7-7--|-9--7--7--5-5--|-9--7--5--2-2--|
A|----------------------|---------------|---------------|
E|----------------------|---------------|---------------|

                         G
If I could change the world,
              D
Like a fairy tale.
                   Em
I would drink the love,
                   C
From your holy grail
                  G
I would start with love
                D
Tell ol´ Beelzebub
              Em
To get outta town
                    C
Cause you just lost your job

F       C         G
How did we get so affected - 'cause I think
F       C      D
love is love reflected...

G                  D
Time, don't let it slip away
           Em                        C
Raise your drinking glass, here's to yesterday
   G                     D
In time, we're all gonna trip away
           Em                 C
Don't piss heaven off, we got hell to pay
            (intro)
Come full circle

And if
                        G
There's a spell on you
                        D
That I could take away
                        Em
I would do the deed
                        C
Yeah and by the way
                        G
Here's to Heaven knows
                        D
As the circle goes
                        Em
It ain't right I'm uptight
                        C
Yeah and get off my toes

F                         C                       G
I used to think that every little thing I did was crazy
F                         C                     D
But now I think the Karma cops are comin' after you

(solo)

E|----------------------------------|
B|----------------------------------|
G|--7---5---4---5----9---7---6---7--|
D|--7---5---4---5----9---7---6---7--|
A|--5---3---2---3----7---5---4---5--|
E|----------------------------------|

G                  D
Time, don't let it slip away
Em                      C
Raise yo drinkin' glass, here's to yesterday
G                       D
In Time We're all gonna trip away
Em                          C
Don't piss Heaven off We got Hell to pay
Come full circle

(ponte)
E|----------------------------------------|
B|----------------------------------------|
G|--3-------5---------------3-------------|
D|--3---3---5---5-----------3---3---7---7-|
A|--1---3---3---5-----------1---3---7---7-|
E|------1-------3---------------1---5---5-|

Every time you get yourself caught up inside
Of someone else's crazy dream
Own it, yeah that's a mistake
Everybody's gotta lotta nada killing them
Instead of killing time
Composição de Stephen Tyler / Taylor Rhodes
Colaboración y revision:
  • Thiago Brogio
  • Victor Bentivegna
  • Gabriel Santolin
791 reproducciones
    • ½ Tono
    • A
    • Bb
    • B
    • C
    • Db
    • D
    • Eb
    • E
    • F
    • F#
    • G
    • Ab
  • Adicionar à lista

    0 comentarios

    Ver todos os comentários

    ¿Conseguiste tocar?

    10 Tocaram 0 Ainda não

    Grave um vídeo tocando Full Circle e nos envie!

    00:00 / 00:00
    outros vídeos desta música
    repetir qualidade Automático
    Outros vídeos desta música
    00:00 / 00:00
    Automático
    OK