Cifra Club

I Don't Want To Miss A Thing

Aerosmith

Tablatura: Principal
reproducciones 26.137
Tono: D
(Dedilhado Introdução)

Parte 1 de 8                           1/2
   B7                       A9/C#
E|-----------------------------------------
B|--------------------------2-----2-----2--
G|-4-----4-----4-----4---------4-----4-----
D|-----------------------------------------
A|-2--2-----2-----2-----2---4--------------
E|-----------------------------------------

                                      2/2
E|-----------------------------------------
B|----2------------------------------------
G|-4-----4---------------------------------
D|-----------------------------------------
A|-----------------------------------------
E|-----------------------------------------

Parte 2 de 8                          1/2
   E4
E|-----------------------------------------
B|-5-----5-----5-----5-----5-----5-----5---
G|----4-----4-----4-----4-----4-----4------
D|-----------------------------------------
A|-----------------------------------------
E|-0-----------------------0---------------

                                      2/2
E|----5------------------------------------
B|-4-----4---------------------------------
G|-----------------------------------------
D|-----------------------------------------
A|-----------------------------------------
E|-----------------------------------------

Parte 3 de 8                          1/2
   B7                       A9/C#
E|-----------------------------------------
B|--------------------------2-----2-----2--
G|-4-----4-----4-----4---------4-----4-----
D|-----------------------------------------
A|-2--2-----2-----2-----2---4--------------
E|-----------------------------------------

                                      2/2
E|-----------------------------------------
B|----2------------------------------------
G|-4-----4---------------------------------
D|-----------------------------------------
A|-----------------------------------------
E|-----------------------------------------

(Repete Parte 1)

Parte 4 de 8
   E4
E|-------------------------2---------------
B|-5-----5-----5-----5-----5--5--3\2--3--5-
G|----4-----4-----4-----4--4---------------
D|-----------------------------------------
A|-----------------------------------------
E|-0-----------------------0---------------

Parte 5 de 8                          1/2
   B7                       A9/C#
E|-----------------------------------------
B|--------------------------2-----2-----2--
G|-4-----4-----4-----4---------4-----4-----
D|-----------------------------------------
A|-2--2-----2-----2-----2---4--------------
E|-----------------------------------------

                                      2/2
E|-----------------------------------------
B|----2------------------------------------
G|-4-----4---------------------------------
D|-----------------------------------------
A|-----------------------------------------
E|-----------------------------------------

Parte 6 de 8
   E4
E|-------------------------2---------------
B|-5-----5-----5-----5-----5--5--3\2--3--5-
G|----4-----4-----4-----4--4---------------
D|-----------------------------------------
A|-----------------------------------------
E|-0-----------------------0---------------

Parte 7 de 8                          1/2
   B7                       A9/C#
E|-----------------------------------------
B|--------------------------2-----2-----2--
G|-4-----4-----4-----4---------4-----4-----
D|-----------------------------------------
A|-2--2-----2-----2-----2---4--------------
E|-----------------------------------------

                                      2/2
E|-----------------------------------------
B|----2------------------------------------
G|-4-----4---------------------------------
D|-----------------------------------------
A|-----------------------------------------
E|-----------------------------------------

Parte 8 de 8
E|-----------------------------------------
B|-5-----5-----5-----5-----2h3p2-----------
G|----4-----4-----4-----4---------4--2-----
D|-----------------------------------------
A|-----------------------------------------
E|-0---------------------------------------

Primeira Parte:
          D6        D6/C#             D6/B
I could stay awake just to hear you breathing
            D6/G                D6/F#
Watch you smile while you are sleeping
              D6/E
While you're far away and dreaming
          D6          D6/C#             D6/B
I could spend my life in this sweet surrender
          D6/G               D6/F#    D6/E
I could stay lost in this moment   forever
               D6/F#     D6/G
Every moment spent with you
                    D6/A
  Is a moment of treasure

Parte 1 de 8
   D6              D6/C#
E|-----------------------------------------
B|-----0-------0-------0-------0-----------
G|---2-------2-------2-------2-------------
D|-4-------4-------4-------4---------------
A|-5-----5-------5-4-----4-------4---------
E|-----------------------------------------

Parte 2 de 8
   D6/B
E|-----------------------------------------
B|-----0-------0--------0-------0----------
G|---2-------2--------2-------2------------
D|-4-------4--------4-------4--------------
A|-2-----2-------2--2-----2-------2--------
E|-----------------------------------------

Parte 3 de 8
   D6/G            D6/F#
E|-----------------------------------------
B|-----0-------0-------0-------0-----------
G|---2-------2-------2-------2-------------
D|-4-------4-------4-------4---------------
A|-----------------------------------------
E|-3-----3-------3-2-----2-------2---------

Parte 4 de 8
   D6/E
E|-----------------------------------------
B|-----0-------0-------0-------0-----------
G|---2-------2-------2-------2-------------
D|-4-------4-------4-------4---------------
A|-----------------------------------------
E|-0-----0------0--0-----0-------0---------

Parte 5 de 8
   D6              D6/C#
E|-----------------------------------------
B|-----0-------0-------0-------0-----------
G|---2-------2-------2-------2-------------
D|-4-------4-------4-------4---------------
A|5-----5-------5-4-----4-------4---------
E|-----------------------------------------

Parte 6 de 8
   D6/B
E|-----------------------------------------
B|-----0-------0--------0-------0----------
G|---2-------2--------2-------2------------
D|-4-------4--------4-------4--------------
A|-2-----2-------2--2-----2-------2--------
E|-----------------------------------------

Parte 7 de 8
   D6/F#           D6/G
E|-----------------------------------------
B|-----0-------0-------0-------0-----------
G|---2-------2-------2-------2-------------
D|-4-------4-------4-------4---------------
A|-----------------------------------------
E|-2-----2-------2-3-----3-------3---------

Parte 8 de 8
   D6/A
E|-----------------------------------------
B|-----0-------0-------0-------0-----------
G|---2-------2-------2-------2-------------
D|-4-------4-------4-------4---------------
A|-0-----0------0--0-----0-------0---------
E|-----------------------------------------

Refrão:
D               A9/C#
  Don't wanna close my eyes
Em7(9)
       I don't wanna fall asleep
  G5/F#     G
'Cause I'd miss you baby
       A4                      D
And I don't wanna miss a thing
                     A9/C#
'Cause even when I dream of you
Em7(9)
       The sweetest dream would never do
      G5/F#  G
I'd still  miss you baby
       A4          D
And I don't wanna miss a thing

( A9/C#  Em7(9) )

Primeira Parte com variação na letra:
         D
Laying close to you
 A9/C#              Bm7(11)
Feeling your heart beating
         G                      D9/F#
And I'm wondering what you're dreaming
          Em7
Wondering if it's me you're seeing
        D
Then I kiss your eyes
      A9/C#            Bm7(11)
And thank God we're together
                     F#m7(11) G7M
And I just want to stay with you

                   A4
 In this moment forever, forever and ever

Refrão:
D               A9/C#
  Don't wanna close my eyes
Em7(9)
       I don't wanna fall asleep
  G5/F#     G
'Cause I'd miss you baby
       A4                      D
And I don't wanna miss a thing
                     A9/C#
'Cause even when I dream of you
Em7(9)
       The sweetest dream would never do
      G5/F#  G
I'd still  miss you baby
       A4          D
And I don't wanna miss a thing

Segunda Parte:
                C9
 I don't wanna miss one smile
                C9/B
 I don't wanna miss one kiss
               Bb9(11+)
 I just wanna be with you
                       F/A
 Right here with you, just like this
               C9
 I just wanna hold you close
              C9/B
 I feel your heart so close to mine
            Dm7(9)
 And just stay here in this moment
              A4          A
 For all the rest of time

Refrão 2x:
D               A9/C#
  Don't wanna close my eyes
Em7(9)
       I don't wanna fall asleep
  G5/F#     G
'Cause I'd miss you baby
       A4                      D
And I don't wanna miss a thing
                     A9/C#
'Cause even when I dream of you
Em7(9)
       The sweetest dream would never do
      G5/F#  G
I'd still  miss you baby
       A4          D
And I don't wanna miss a thing

Parte Final:
( Bm7(11)  C#m7(11)  Em7(11)  G5/F# G5  A4 )
( D  A9/C#  Em7(9) G5/F# G5  A4 )

0 comentarios

    mostrar más comentarios

    ¿Conseguiste tocar?

    72tocaron3aún no

    ¡Graba un vídeo tocando I Don't Want To Miss A Thing y envianoslo!

    00:00 / 00:00
    outros vídeos desta música
    repetirqualidadeautomática
    Outro vídeos desta música
      00:00 / 00:00
      automática
      Capítulos
      • Início
      • Tocando a música
      • Acordes da Introdução
      • Tocando Introdução
      • Ensinando Introdução
      • Acordes da Primeira Parte
      • Tocando Primeira Parte
      • Ensinando Dedilhado da Primeira Parte
      • Ensinando Ritmo da Primeira Parte
      • Acordes do Refrão
      • Tocando Refrão
      • Acordes da Segunda Parte
      • Tocando Segunda Parte
      • Acordes do Final
      • Tocando Final
      • Ensinando Arranjo do Final
      • Encerramento
      OK