Cifra Club

I Don't Want To Miss A Thing

Aerosmith

Cifrado: Principal (guitarra y guitarra eléctrica)
Selo Cifra Club: esta cifra foi revisada para atender aos critérios oficiais da nossa Equipe de Qualidade.
tono: D
[Intro] B4(9)  B4(9)/C#  E5
        B4(9)  B4(9)/C#  E5
        B4(9)  B4(9)/C#  E5
        B4(9)  B4(9)/C#  E5

[Dedilhado - Intro]

Parte 1 de 8                           
   B4(9)                    B4(9)/C#
E|-----------------------------------------|
B|--------------------------2-----2-----2--|
G|-4-----4-----4-----4------4-----4-----4--|
D|-----------------------------------------|
A|-2--2-----2-----2-----2---4--4----4------|
E|-----------------------------------------|
                              
E|-----------------------------------------|
B|---2-------------------------------------|
G|---4-------------------------------------|
D|-----------------------------------------|
A|-4----4----------------------------------|
E|-----------------------------------------|

Parte 2 de 8                        
   E5
E|-----------------------------------------|
B|-5-----5-----5-----5-----5-----5-----5---|
G|-4-----4-----4-----4-----4-----4-----4---|
D|-----------------------------------------|
A|-----------------------------------------|
E|-0--0-----0------0----0--0---0-----0-----|

E|----5------------------------------------|
B|----4------------------------------------|
G|-----------------------------------------|
D|-----------------------------------------|
A|-----------------------------------------|
E|-0-----0---------------------------------|

Parte 3 de 8                                        
   B4(9)                    B4(9)/C#
E|-----------------------------------------|
B|--------------------------2-----2-----2--|
G|-4-----4-----4-----4------4-----4-----4--|
D|-----------------------------------------|
A|-2--2-----2-----2-----2---4--4----4------|
E|-----------------------------------------|
                              
E|-----------------------------------------|
B|---2-------------------------------------|
G|---4-------------------------------------|
D|-----------------------------------------|
A|-4----4----------------------------------|
E|-----------------------------------------|

Parte 4 de 8
   E5
E|-------------------------2---------------|
B|-5-----5-----5-----5--------5--3p2--3--5-|
G|-4-----4-----4-----4---------------------|
D|-----------------------------------------|
A|-----------------------------------------|
E|-0--0-----0-----0-----0------------------|

Parte 5 de 8                                        
   B4(9)                    B4(9)/C#
E|-----------------------------------------|
B|--------------------------2-----2-----2--|
G|-4-----4-----4-----4------4-----4-----4--|
D|-----------------------------------------|
A|-2--2-----2-----2-----2---4--4----4------|
E|-----------------------------------------|
                              
E|-----------------------------------------|
B|---2-------------------------------------|
G|---4-------------------------------------|
D|-----------------------------------------|
A|-4----4----------------------------------|
E|-----------------------------------------|

Parte 6 de 8
   E5
E|-------------------------2---------------|
B|-5-----5-----5-----5--------5--3p2--3--5-|
G|-4-----4-----4-----4---------------------|
D|-----------------------------------------|
A|-----------------------------------------|
E|-0--0-----0-----0-----0------------------|

Parte 7 de 8                                        
   B4(9)                    B4(9)/C#
E|-----------------------------------------|
B|--------------------------2-----2-----2--|
G|-4-----4-----4-----4------4-----4-----4--|
D|-----------------------------------------|
A|-2--2-----2-----2-----2---4--4----4------|
E|-----------------------------------------|
                              
E|-----------------------------------------|
B|---2-------------------------------------|
G|---4-------------------------------------|
D|-----------------------------------------|
A|-4----4----------------------------------|
E|-----------------------------------------|

Parte 8 de 8
   E5
E|-----------------------------------------|
B|-5-----5-----5-----5-------2h3p2---------|
G|-4-----4-----4-----4--------------4--2---|
D|-----------------------------------------|
A|-----------------------------------------|
E|-0--0-----0-----0-----0------------------|

[Primeira Parte]

[Dedilhado - Primeira Parte]

Parte 1 de 10
   D6              D6/C#
E|-----------------------------------------|
B|-----0-------0-------0-------0-----------|
G|---2-------2-------2-------2-------------|
D|-4-------4-------4-------4---------------|
A|-5-----5-------5-4-----4-------4---------|
E|-----------------------------------------|

Parte 2 de 10
   D6/B
E|-----------------------------------------|
B|-----0-------0--------0-------0----------|
G|---2-------2--------2-------2------------|
D|-4-------4--------4-------4--------------|
A|-2-----2-------2--2-----2-------2--------|
E|-----------------------------------------|

Parte 3 de 10
   D6/G            D6/F#
E|-----------------------------------------|
B|-----0-------0-------0-------0-----------|
G|---2-------2-------2-------2-------------|
D|-4-------4-------4-------4---------------|
A|-----------------------------------------|
E|-3-----3-------3-2-----2-------2---------|

Parte 4 de 10
   D6/E
E|-----------------------------------------|
B|-----0-------0-------0-------0-----------|
G|---2-------2-------2-------2-------------|
D|-4-------4-------4-------4---------------|
A|-----------------------------------------|
E|-0-----0------0--0-----0-------0---------|

Parte 5 de 10
   D6              D6/C#
E|-----------------------------------------|
B|-----0-------0-------0-------0-----------|
G|---2-------2-------2-------2-------------|
D|-4-------4-------4-------4---------------|
A|-5-----5-------5-4-----4-------4---------|
E|-----------------------------------------|

Parte 6 de 10
   D6/B
E|-----------------------------------------|
B|-----0-------0--------0-------0----------|
G|---2-------2--------2-------2------------|
D|-4-------4--------4-------4--------------|
A|-2-----2-------2--2-----2-------2--------|
E|-----------------------------------------|

Parte 7 de 10
   D6/G            D6/F#
E|-----------------------------------------|
B|-----0-------0-------0-------0-----------|
G|---2-------2-------2-------2-------------|
D|-4-------4-------4-------4---------------|
A|-----------------------------------------|
E|-3-----3-------3-2-----2-------2---------|

Parte 8 de 10
   D6/E
E|-----------------------------------------|
B|-----0-------0-------0-------0-----------|
G|---2-------2-------2-------2-------------|
D|-4-------4-------4-------4---------------|
A|-----------------------------------------|
E|-0-----0------0--0-----0-------0---------|

Parte 9 de 10
   D6/F#            D6/G
E|-----------------------------------------|
B|-----0-------0-------0-------0-----------|
G|---2-------2-------2-------2-------------|
D|-4-------4-------4-------4---------------|
A|-----------------------------------------|
E|-2-----2-------2-3-----3-------3---------|

Parte 10 de 10
E|-----------------------------------------|
B|-----0-------0-------0-------0-----------|
G|---2-------2-------2-------2-------------|
D|-4-------4-------4-------4---------------|
A|-0-----0------0--0-----0-------0---------|
E|-----------------------------------------|

          D6        D6/C#             D6/B
I could stay awake just to hear you breathing
            D6/G                D6/F#
Watch you smile while you are sleeping
              D6/E
While you're far away and dreaming
          D6          D6/C#             D6/B
I could spend my life in this sweet surrender
          D6/G               D6/F#    D6/E
I could stay lost in this moment   forever
               D6/F#     D6/G
Every moment spent with you
                  D6/A
Is a moment of treasure

[Refrão]

D5(9)               A9/C#
      Don't wanna close my eyes
Em7(9)
       I don't wanna fall asleep
  G5/F#     G7M
'Cause I'd miss you baby
                   A4          
And I don't wanna miss a thing
D5(9)                      A9/C#
      'Cause even when I dream of you
Em7(9)
       The sweetest dream would never do
      G5/F#  G7M
I'd still   miss you baby
                   A4          
And I don't wanna miss a thing

( D5(9)  A9/C#  Em7(9)  A4 )

[Primeira Parte - Variação]

         D
Laying close to you
 A9/C#              Bm7(11)
Feeling your heart beating
         G                      D9/F#
And I'm wondering what you're dreaming
          Em7
Wondering if it's me you're seeing
        D
Then I kiss your eyes
      A9/C#            Bm7(11)
And thank God we're together
                     F#m7(11) G7M
And I just want to stay with you
                  A4
In this moment forever, forever and ever

[Refrão]

D5(9)               A9/C#
      Don't wanna close my eyes
Em7(9)
       I don't wanna fall asleep
  G5/F#     G7M
'Cause I'd miss you baby
                   A4          
And I don't wanna miss a thing
D5(9)                      A9/C#
      'Cause even when I dream of you
Em7(9)
       The sweetest dream would never do
      G5/F#  G7M
I'd still   miss you baby
                   A4          
And I don't wanna miss a thing

[Segunda Parte]

               C9
I don't wanna miss one smile
               C9/B
I don't wanna miss one kiss
              Bb9(11+)
I just wanna be with you
                      F/A
Right here with you, just like this
              C9
I just wanna hold you close
                       C9/B
I feel your heart so close to mine
           Dm7(9)
And just stay here in this moment
             A4          A
For all the rest of time

[Refrão]

D5(9)               A9/C#
      Don't wanna close my eyes
Em7(9)
       I don't wanna fall asleep
  G5/F#     G7M
'Cause I'd miss you baby
                   A4          
And I don't wanna miss a thing
D5(9)                      A9/C#
      'Cause even when I dream of you
Em7(9)
       The sweetest dream would never do
      G5/F#  G7M
I'd still   miss you baby
                   A4          
And I don't wanna miss a thing


D5(9)               A9/C#
      Don't wanna close my eyes
Em7(9)
       I don't wanna fall asleep
  G5/F#     G7M
'Cause I'd miss you baby
                   A4          
And I don't wanna miss a thing
Bm7(11)                     C#m7(11)
       'Cause even when I dream of you
Em7(11)
        The sweetest dream would never do
      G5/F#  G7M
I'd still   miss you baby
                   A4          
And I don't wanna miss a thing

[Final] D5(9)  A9/C#  Em7(9)  G5/F#  G7M  A4
        D5(9)  A9/C#  Em7(9)  G5/F#  G7M  A4
        Bm7(11)  C#m7(11)  D

[Tab - Final]

  Bm7(11)       C#m7(11)            D
                             H.N..
B|-0--0--0--0-0-0-----5-------------2------|
G|-3--3--3--3-3-5--7----7-8------7--3------|
D|-2--2--2--2-2-4---------0--7------2------|
A|-0--0--0--0-0-X--------------7----0------|
E|-2--2--2--2-2-4--5------7----------------|
E|-----------------------------------------|
Otros videos de esta canción
    1.324.947 exhibiciones
    • Simplificar cifrado
      • ½ Tono
      • A
      • Bb
      • B
      • C
      • Db
      • D
      • Eb
      • E
      • F
      • F#
      • G
      • Ab
    • Agregar a la lista

    Afinación de cifrado

    Afinador online

      Capítulos
      • Início
      • Tocando a música
      • Acordes da Introdução
      • Tocando Introdução
      • Ensinando Introdução
      • Acordes da Primeira Parte
      • Tocando Primeira Parte
      • Ensinando Dedilhado da Primeira Parte
      • Ensinando Ritmo da Primeira Parte
      • Acordes do Refrão
      • Tocando Refrão
      • Acordes da Segunda Parte
      • Tocando Segunda Parte
      • Acordes do Final
      • Tocando Final
      • Ensinando Arranjo do Final
      • Encerramento
      OK