Cifra Club

Aprenda

I Don't Want To Miss A Thing

Aerosmith

Tab de bajo: Principal
Intro
G|----------------|
D|----------------|
A|-5~---7~--------|
E|-----------5~---|
   G	D    A

Verse
G|----------------------------------------|
D|--------------------5~------------------|
A|-5~----------------------5~---7~--------|
E|------5~---7~----------------------5~---|
   D	A    Bm	      G	   D	Em   A

G|----------------|
D|----------------|
A|-5~-------------|
E|------5~---7~---|
   D	A    Bm

G|----------------|
D|----------------|
A|-5~---7~--------|
E|-----------5~---|
   G	D    A

Chorus
G|-------------------------------|
D|-------------------------------|
A|-5~----------------5-2~-5----7-|
E|------5~---0~-2-3~--------5~---| x2
   D	A    Em   G    Bm   A

Middle 8
G|-----------------------------------------|
D|-----------------------------------------|
A|-3~--------2~--------3~--------5~--------|
E|------3~--------1~--------3~--------0~---|
   C	G    Bm   F    C    G	 Dm   E5

Outtro
G|-----------------------------------------|
D|---------------------5~------------------|
A|-5~--------7~-----------------------5~---|
E|------5~------------------7~---5~--------|
   D	A    Em	       G    Bm	 A    D
Composição de Diane Warren
361 reproducciones

0 comentarios

Ver todos os comentários

¿Conseguiste tocar?

1 Tocaram 0 Ainda não

Grave um vídeo tocando I Don't Want To Miss A Thing e nos envie!

00:00 / 00:00
outros vídeos desta música
repetir qualidade Automático
Outros vídeos desta música
00:00 / 00:00
Automático
OK