Cifra Club

Just Push Play

Aerosmith

Cifrado: Versão 3 (guitarra y guitarra eléctrica)
Selo Cifra Club: esta cifra foi revisada para atender aos critérios oficiais da nossa Equipe de Qualidade.
tono: F
Intro:
Guitar 1
E|-------------------------------|-------------------------------|
B|-3-3-3-3-3-3-x---3--3--3-3-3---|-3-3-3-3-3-3-x---3--3--3-3-3-3-| Play
G|-----------------------------2-|-------------------------------| This
D|-------------------------------|-------------------------------| Twice
A|-------------------------------|-------------------------------|
E|-------------------------------|-------------------------------|
|                                                               |
|Guitar 2 This is played the 2nd time guitar 1 plays the above  |
E|-------------------------------|--/10~~~~~~~~~~~~~~~~~~~~------|
B|-------------------------------|--/10~~~~~~~~~~~~~~~~~~~~------|
G|--1-(s| lowly slide up to)-3~~~--|-------------------------------|
D|-------------------------------|-------------------------------|
A|------------------(P| lay this part with slide)------------------|
E|-------------------------------|-------------------------------|

E|-------------------------------|-------------------------------|
B|-------------------------------|-------------------------------|
G|-------------------------------|-------------------------------|
D|-------------------------------|-------------------------------|
A|--------0h5p0------------------|--------0h5p0------------------|
E|---5--6-------3h5--3--0----0---|--0h5-6-------3h5--3p0--3p0----|

E|-------------------------------|-------------------------------|
B|-------------------------------|-------------------------------|
G|-------------------------------|-------------------------------|
D|-------------------------------|-------------------------------|
A|--------0h5p0------------------|--------0h5p0------------------|
E|-0h5--6-------3h5--3--0----0---|--0h5-6-------3h5--3p0--3p0----|

Verse 1:
E|-------------------------------|-------------------------------|
B|-------------------------------|-------------------------------| Play
G|-------------------------------|-------------------------------| This
D|-------------------------------|-------------------------------| Twice
A|--------0h5p0------------------|--------0h5p0------------------|
E|-0h5--6-------3h5--3--0----0---|--0h5-6-------3h5--3p0--3p0----|
She gave you a flower.
       The one that God gave her.     (Weird scat lyrics)
You all up in the Kool-Aid but
      you do not know the flavor.     (Weird scat lyrics)

E|-------------------------------|
B|-------------------------------|
G|-------------------------------|
D|-------------------------------|
A|--------0h5p0------------------|
E|-0h5--6-------3h5--3--0----0---|
Get into the zone baby and
             do yourself a favor.

Pre-chorus 1:
E|------------------|--------------------------|
B|------------------|--------------------------| Play
G|------------------|--------------------------| This
D|--5~~~~~~~~~~~~x--|--5~~~~~~~~~x-5--5-5-5-5--| Twice
A|--5~~~~~~~~~~~~x--|--5~~~~~~~~~x-5--5-5-5-5--|
E|--5~~~~~~~~~~~~x--|--5~~~~~~~~~x-5--5-5-5-5--|
(Weird scat lyrics) Head down spin around and
                          get a little refried.
(Weird scat lyrics) If that don’t get it you
                      can get it on the b-side.

Chorus:
E|-------------------------------|-------------------------------|
B|-------------------------------|-------------------------------| Play
G|-------------------------------|-------------------------------| This
D|-------------------------------|-------------------------------| Twice
A|---------0h5p0-----------------|--------0h5p0------------------|
E|---0h5-6-------3h5--3p0--3p0---|-0h5--6-------3h5--3--0----0---|
Just push play! (Outta the Way!) Just push play! (You’re gonna
                                                   do it anyway!)
Just push play! (Right away!)    Just push play! (We’re comin at
                                                     you anyway!)

Verse 2:
E|-------------------------------|-------------------------------|
B|-------------------------------|-------------------------------| Play
G|-------------------------------|-------------------------------| This
D|-------------------------------|-------------------------------| Twice
A|---------0h5p0-----------------|--------0h5p0------------------|
E|---0h5-6-------3h5--3p0--3p0---|-0h5--6-------3h5--3--0----0---|
       (Weird scat lyrics)       Sweet leaf dreamer you been
                                             smokin up the ganja.
       (Weird scat lyrics)       Damned if you do, yeah, but
                                             don’t get any on ya.

Pre-chorus 2
E|------------------|--------------------------|
B|------------------|--------------------------| Play
G|------------------|--------------------------| This
D|--5~~~~~~~~~~~~x--|--5~~~~~~~~~x-5--5-5-5-5--| Twice
A|--5~~~~~~~~~~~~x--|--5~~~~~~~~~x-5--5-5-5-5--|
E|--5~~~~~~~~~~~~x--|--5~~~~~~~~~x-5--5-5-5-5--|
(Weird scat lyrics) Kickin up the cashmere
                         putting on the Kasbah.
(Weird scat lyrics) It’s a kiss, diss, trade
                              it for a hoo-hah.

Chorus:
E|-------------------------------|-------------------------------|
B|-------------------------------|-------------------------------| Play
G|-------------------------------|-------------------------------| This
D|-------------------------------|-------------------------------| Twice
A|---------0h5p0-----------------|--------0h5p0------------------|
E|---0h5-6-------3h5--3p0--3p0---|-0h5--6-------3h5--3--0----0---|
Just push play! (Outta the Way!) Just push play! (You’re gonna
                                                   do it anyway!)
Just push play! (Right away!)    Just push play! (We’re comin at
                                                     you anyway!)
00:00 / 00:00
Otros videos de esta canción
Repetir
Otros videos de esta canción
2 exhibiciones
    • ½ Tono
    • A
    • Bb
    • B
    • C
    • Db
    • D
    • Eb
    • E
    • F
    • F#
    • G
    • Ab
  • Agregar a la lista

Afinación de cifrado

Afinador online

    00:00 / 00:00
    OK