Cifra Club

Kings And Queens

Aerosmith

Cifrado: Principal (guitarra y guitarra eléctrica)
tono: G
(parte 1)

E|---------------------------
B|---------------------------
G|------5-6-----------6-5--9-
D|-3----5-6----3-4----6-5--9-
A|-3----3-4----3-4----4-3--7-
E|-1-----------1-2-----------

(parte )2
E|-----------------------------------------------------------------------------------
B|-----------------------------------------------------------------------------------
G|------5-6--------------------------------------------------------------------------
D|-3----5-6----3-4---5--6--6666666---8--888888888888888--1010101010101010101010101010
A|-3----3-4----3-4---5--6--6666666---8--888888888888888--1010101010101010101010101010
E|-1-----------1-2---3--4--4444444---6--666666666666666--8-8-8-8-8-8-8-8-8-8-8-8-8-8-

(parte 3) 
E|----------------------
B|-----6---4--------4---
G|---5----5--5-----5-5-- 
D|-3-----3-----3--3---3-
A|----------------------
E|----------------------

(parte 3)
E|--------------------------------------------------------------------
B|--------------------------------------------------------------------
G|-10---10---10---10---10---10---10----8----6---6---6---6---6---6---6-
D|-10---10---10---10---10---10---10----8----6---6---6---6---6---6---6-
A|-8----8----8----8----8-----8---8-----6----4---4---4---4---4---4---4-
E|--------------------------------------------------------------------

Long ago in days untoled
Were ruled by lords of greed
Maidens fair, with gold they dared
To bare their wombs that bleed
Kings And Queens and guillotines
Taking lives denied
Starch and parchments laid the laws
When bishops took the ride

Only to decieve

Oh I know I
Lived this life before
Somehow I know now
Truths I must be sure
Tossin' turnin', nightmares brunin'
Dreams of swords in hand
Sailing ships, the viking spits
The blood of father's land

Only to decieve ((parte1 e (parte2)

Living times of knights and mares
Raising swords for maidens fair
Sneer at death, fear only loss of pride
Living other centuries
Deja v?or what you please
Follows true to all who do or die

E|-8--6--4--3-3--4-3-1-------
Screams of no reply
They died
Screams of no reply
And And died...

Lordly, lordly, they died.
(Solo de Baixo)
(Solo de Guitarra)
E|-13--------------------------------------------------------------------------------
B|----------------------11-12--11-------9------------------9-8---9-------------------
G|-----------12----13----------------------10-----------------------10------8--10-10-
D|-----------------------------------------------------11--------------10------------
A|-----------------------------------------------------------------------------------
E|-----------------------------------------------------------------------------------

E|---------------------------------------------------------------------13---11-11---
B|-8--9--------------8--9-----------------------8-9-----------------13--------------
G|--------10--8-10---------10--10---------------------10-10------10-----------------
D|----------------------------------------------------------------------------------
A|----------------------------------------------------------------------------------
E|----------------------------------------------------------------------------------

E|----------------------------------------------------------------------------------------
B|-13--------------------------------------------11---------------------------------------
G|----10-13----------------------------------13-------12--12--10--13---12---10------------
D|----------13-------13-10--------------13---------------------------------------10-------
A|-------------------------13-11-----------------------------------------------------13---
E|-------------------------------13-------------------------------------------------------

E|-----------------------------------------------------------------------
B|--------11--9-----11-----9----11--11---9-------------------------------
G|-10-13-------------------------------------10--------------------------
D|----------------------------------------------10-----------------------
A|-----------------------------------------------------------------------
E|-----------------------------------------------------------------------

E|-----------------------13----11---11------------------------------------
B|-------------------13-----------------------------13--12--11------------
G|-10------------13---------------------------------------------13-10-----
D|--------------------------------------------------------------------13--
A|------------------------------------------------------------------------
E|------------------------------------------------------------------------

E|-------------------------------------------------------------------
B|------------------------------------------------------16-----------
G|-----------------------10-12-13----13-------15---------------15----
D|-10----------------------------------------------------------------
A|----13-11-13---13--------------------------------------------------
E|-------------------------------------------------------------------

E|---------------------------13------------------------------------
B|-16---------------------13--------13---------16------------------
G|-----15--13------15----------------------------------------------
D|-------------15--------------------------------------------------
A|-----------------------------------------------------------------
E|-----------------------------------------------------------------

Let them do or die...
Let them no reply...
00:00 / 00:00
Otros videos de esta canción
Repetir
Otros videos de esta canción
Composición de Brad Whitford / Jack Douglas / Joey Kramer / Steven Tyler / Tom Hamilton
Colaboración y revisión:
  • marcos souza
437 vistas
    • ½ Tono
    • A
    • Bb
    • B
    • C
    • Db
    • D
    • Eb
    • E
    • F
    • F#
    • G
    • Ab
  • Agregar a la lista

    0 comentarios

    Ver todos los comentarios

    ¿Lograste tocar?

    1 Tocaron 0 Aún no

    ¡Graba un video tocando Kings And Queens y envíanoslo!

    00:00 / 00:00
    OK