Cifra Club

Aprenda

Living On The Edge

Aerosmith

Tablatura: Principal (guitarra)
tono: D
   D5
e+-----------0h2p0-------0---------|-----------0h2p0-------0---------|
B+-----3-----------3-------3-----3-|-----3-----------3-------3-----3-|
G+---------------------------0h2---|---------------------------0h2---|
d+-0-------------------------------|-0-------------------------------|
A+---------------------------------|---------------------------------|
D+---------------------------------|---------------------------------|

|---------------------------------|---------------------------------|
|---------------------------------|---------------------------------|
|-------7--7--7--7--9b11r9b10r9-7-|-------7--7--7--7--9b11r9--------|
|---------------------------------|---------------------------------|
|---------------------------------|---------------------------------|
|---------------------------------|---------------------------------|

 [F#5]            
|---------------------------------|---------------------------------|
|---------------------------------|---------------------------------|
|---------------------------------|---------------------------------|
|-----------------------2---------|-----------------------2---------|
|-4---4-------4---2-3-4-0-----4-2-|-4---4-------4---2-3-4-0-----4/--|
|-4---4-------4---2-3-4-------4-2-|-4---4-------4---2-3-4-------4/--|

 [B5]
|---------------------------------|---------------------------------|
|---------------------------------|---------------------------------|
|-----------------------7---------|-----------------------7---------|
|-----------------------7---------|-----------------------7---------|
|-9---9-------9---7-8-9-------9-7-|-9---9-------9---7-8-9-------9\--|
|-9---9-------9---7-8-9-------9-7-|-9---9-------9---7-8-9-------9\--|

 [F#5]
|---------------------------------|---------------------------------|
|---------------------------------|---------------------------------|
|---------------------------------|---------------------------------|
|-----------------------2---------|-----------------------2---------|
|-4---4-------4---2-3-4-0-----4-2-|-4---4-------4---2-3-4-0-----4---|
|-4---4-------4---2-3-4-------4-2-|-4---4-------4---2-3-4-------4---|
                        
 FILL 1:
   |---------------------------------|---------------------------------|
   |---------------------------------|-----9b10r9---7-9b10r9----7-9-7\-|
   |-----------------7b9-----7-------|---7-9b11r9---7-9b11r9----7-9-7\-|
   |---------------------------------|-9-------------------------------|
   |---------------------------------|---------------------------------|
   |---------------------------------|---------------------------------|

 FILL 2:
   |---------------------------------|------------------------------7\-|
   |---------------------------------|-----9-9-9b10r9b10r9b10r9-----7\-|
   |-----------------7b9-----7-------|---7-9-9-9b11r9b11r9b11r9-7------|
   |---------------------------------|-9--------------------------9----|
   |---------------------------------|---------------------------------|
   |---------------------------------|---------------------------------|

 |---------17--------------17------|
 |-15--------------15--------------|
 |-----14------14------14------14--|
 |---------------------------------|
 |---------------------------------|
 |---------------------------------|

|-----6-----------|-----5-----------|
|-----------------|-----------------|
|-7b8-(hold)------|-8r7-------------|
|-----------------|-----------------|
|-----------------|-----------------|
|-----------------|-----------------|

|------10---------|------8----------|-----6-----------|-----5-----------|
|-----------------|-----------------|-----------------|-----------------|
|-9b11-(hold)-----|-11r9------------|-7b8-(hold)------|-8r7-------------|
|-----------------|-----------------|-----------------|-----------------|
|-----------------|-----------------|-----------------|-----------------|
|-----------------|-----------------|-----------------|-----------------|

      D5     Bm     A5     A#     G5     F5     E5    D#5    G/B
   |---------2------------------------------------------------3--|
   |--3------3-------------3-----(8)----(6)----(5)----(4)-----3--|
   |--2------4------2------3-----(7)----(5)----(4)----(3)-----0--|
   |--0------4------2------3------5------3------2------1------0--|
   |--0------2------0------1------5------3------2------1------2--|
   |------------------------------5------3------2------1---------|
Composição de Joe Perry / Mark Hudson / Steven Tyler
Colaboración y revision:
  • Leonardo Lamesa
1.121 reproducciones
  • Simplificar cifra
    • ½ Tono
    • A
    • Bb
    • B
    • C
    • Db
    • D
    • Eb
    • E
    • F
    • F#
    • G
    • Ab
  • Adicionar à lista

    0 comentarios

    Ver todos os comentários

    ¿Conseguiste tocar?

    3 Tocaram 0 Ainda não

    Grave um vídeo tocando Living On The Edge e nos envie!

    00:00 / 00:00
    outros vídeos desta música
    repetir qualidade Automático
    Outros vídeos desta música
    00:00 / 00:00
    Automático
    OK