Cifra Club

Aprenda

Other Side Solo

Aerosmith

Tablatura: Principal (guitarra)
tono: D
h= hammer on
p = pull off
... = palm mute
b = bend
r= bring back bend
~ = ring out/ vibrato
# above measure is what step the bend is.
1 = one step bend
.5 = half step bend
.75 = three fourths bend
.25 = quarter bend
1.5 = one and a half step bend.
2 = two step bend.
                                                        1                 1              1
E |-----------------------------------------------------------------------------------------------12--------|
B |---------------------------------------------------15-------------------15b---15~~--12------12-----15p12-|
G |-----------------------------------------------12--14-14b---12~~-----------------------14b---------------|
D |-14-14-14-14-14-14-14--------14-14-14-14-14-14--------------------14p12----------------------------------|
A |---------------------------------------------------------------------------------------------------------|
E |-----------------------12--------------------------------------------------------------------------------|
                                                                .5
E |----12--------------------------------------------------------------------14~-----------------------|
B |----12----------------------------------------------------------14b---12--14~-------------12--------|
G |-14----12-14p12----12--------------------------------12--14p12--14b---12--14~--12--14p12--12--------|
D |----------------14----14p12--------------------------12--------------------------14-----14----14p12-|
A |----------------------------14p12-10-12p10-----7h/14------------------------------------------------|
E |-------------------------------------------12-------------------------------------------------------|

    .5                 .5                1
E |-15------------------15----12------12------12----------------------------------------0----------------------------0-|
B |-14b----12-15p12-----14b------15\-/12-12---12-12--12---------------------------------0----------------------------0-|
G |----------------12--------------------14b-----12--12-----------------------0h1---2h4---------------------0h1--2h4---|
D |------------------------------------------------------14------2-------2p0------2------------2-------2p0------2------|
A |----------------------------------------------------------0-2---2-0-2-------------------0-2---2-0-2-----------------|
E |--------------------------------------------------------------------------------------------------------------------|
                          _________________________________
     1                    1
E |--17b---17--15---------19b----19b---19b----19b--19b----19---15-------------------------|
B |-----------------17p15--------19b---19b----19b--19b---------15--17---17p15-----17---17-|
G |---------------------------------------------------------------------------16--16------|
D |---------------------------------------------------------------------------------------|
A |---------------------------------------------------------------------------------------|
E |---------------------------------------------------------------------------------------|
   *For the bend above that has the 1____________ that means keep that bend while
    picking those notes and end that bend at the end of the ________.

    2       2                                              1
E |---------------------------12-----12--------12----12-12---------12-12-12-12-12-12--|
B |-17b-----17b---17~~-17\----12--12-12--15p12-12-12-12-12-15b--12-12-12-12-12--------|
G |-----------------------/12---------------------------------------------------------|
D |-----------------------------------------------------------------------------------|
A |-----------------------------------------------------------------------------------|
E |-----------------------------------------------------------------------------------|

E |-12--12--15-15--15--15--15--15--15p12--|
B |-12--12--14-14--14--14--14--14--14p12--|
G |---------------------------------------|
D |---------------------------------------|
A |---------------------------------------|
E |---------------------------------------|
66 reproducciones
    • ½ Tono
    • A
    • Bb
    • B
    • C
    • Db
    • D
    • Eb
    • E
    • F
    • F#
    • G
    • Ab
  • Adicionar à lista

    0 comentarios

    Ver todos os comentários

    ¿Conseguiste tocar?

    0 Tocaram 0 Ainda não

    Grave um vídeo tocando Other Side Solo e nos envie!

    00:00 / 00:00
    outros vídeos desta música
    repetir qualidade Automático
    Outros vídeos desta música
    00:00 / 00:00
    Automático
    OK