Cifra Club

Aprenda

Same Old Song And Dance

Aerosmith

Tablatura: Principal (guitarra)
tono: C
Intro 4x: 
    E7                           Em7          E5
E|----------------------------|------------------|
B|----------------------------|------------------|
G|----------------------------|-------------9-9--|
D|--------------0--0------0---|-------------9-9--|
A|---------------------2-----2|-------2-----7-7--|
E|-0--0--3b4p0----------------|--3p0--0--0--0-0--|

Verso: 
       E7                     Em7
E|-------------------------|---------------------------|
B|-------------------------|---8-----------------------|
G|----------------7----7---|--------7--------9---------|
D|---------9------7----7---|------------7----9---------|
A|---------7---------------|---------------------------|
E|-------------------------|---------------------------|
  Get   yourself cool-er,    lay yourself low.  Etc.
Coincidental murder with nothing to show.
When the judge's constipation goes to his head,
and his wife's aggravation, you're soon enough dead.

    G5        A5      C5        D5
E|------------------------------------------|
B|------------------------------------------|
G|-------------------5---5-----7----7-------|
D|-5----5----7-7-----5---5-----7----7-------|
A|-5----5----7-7-----3---3-----5----5-------|
E|-3----3----5-5----------------------------|
 Same old  story,  same old  song and dance

Ponte:
     B
E|----------------------------------------------|
B|----------------------------------------------| 
G|--4-----4------0----2-----4-----4-----0---2---|
D|--4-----4------0----2-----4-----4-----0---2---|
A|----------------------------------------------|
E|----------------------------------------------|
  Fate  comes a knocking; doors start locking....

Verso: 
       E7                     Em7
E|-------------------------|---------------------------|
B|-------------------------|---8-----------------------|
G|----------------7----7---|--------7--------9---------|
D|---------9------7----7---|------------7----9---------|
A|---------7---------------|---------------------------|
E|-------------------------|---------------------------|
Your old time connection, change your direction.
Ain't gonna change it, can't rearrange it.
Can't stand the pain when it's all the same to you, my friend.

    E7                           Em7          E5
E|----------------------------|-------------------|
B|----------------------------|-------------------|
G|----------------------------|--------------9-9--|
D|--------------0--0------0---|--------------9-9--|
A|-----------2---------2-----2|--------------7-7--|
E|-0--0--4--------------------|--3--0-----0-------|

    C5       D5     F5       G5       A5
E|-----------------------------------------|
B|-----------------------------------------|
G|-5---5----7-7----------------------------|
D|-5---5----7-7----3----3---5---5----7-----|
A|-3---3----5-5----3----3---5---5----7-----|
E|-----------------1----1---3---3----5-----|
 Same old story, same old song and dance.

E7
   Get yourself cooler
Em7
Lay yourself low
  E7
Coincidental murder
     Em7
With nothing to show
             E7
When the judge's constipation
Em7
Goes to his head
             E7
And his wife's aggravation
       Em7
You're soon enough dead
         G7        A5
It's the same old story
 C5       D5       E7           Em7
Same old song and dance, my friend
          G5       A5
It's the same old story
C5        D5       E7           Em7
Same old song and dance, my friend
E7
    Gotcha with the cocaine
      Em7
They found with your gun
    E7
No smooth face laywer
       Em7
Could get ya undone
       E7
Say love ain't the same
        Em7
On the south side of town
               E7
You could look
                    Em7
But you ain't gonna find it around

It's the same old story
 C5       D5       E7           Em7
Same old song and dance, my friend
          G5       D5
It's the same old story
F5        G5       A5
Same old song and dance
B
Fate comes a-knockin'

Doors start lockin'

Your old time connection

Change your direction

You ain't gonna change it

Can't rearrange it

Can't stand the pain
          B5  C#5 D5  D#5 E5
When it's all the same to you
E7          Em7 E7
  My friend
Em7       E7
    When you're low down and dirty
      Em7
From walkin' the street
          E7
With your old hurdy gurdy
Em7
 No one to meet
          E7
Say love ain't the same
        Em7
On the south side of town
               E7
You could look
                     E7
But you ain't gonna find it around

It's the same old story
 C5       D5       E7           Em7
Same old song and dance, my friend
          G5       D5
It's the same old story
F5        G5       A5
Same old song and dance
Composição de Joe Perry / Steven Tyler
Colaboración y revision:
  • Mozar't Plays
  • Kevin Mateus
383 reproducciones
    • ½ Tono
    • A
    • Bb
    • B
    • C
    • Db
    • D
    • Eb
    • E
    • F
    • F#
    • G
    • Ab
  • Adicionar à lista

    0 comentarios

    Ver todos os comentários

    ¿Conseguiste tocar?

    4 Tocaram 0 Ainda não

    Grave um vídeo tocando Same Old Song And Dance e nos envie!

    00:00 / 00:00
    outros vídeos desta música
    repetir qualidade Automático
    Outros vídeos desta música
    00:00 / 00:00
    Automático
    OK