Cifra Club

Aprenda

Shela

Aerosmith

Tablatura: Principal (guitarra)
tono: G
Riff 1 
E|---------------------------------------------------|
B|---------------------------------------------------|
G|---------------------------------------------------|
D|-----5-----5------5-----4-----4-----4-----5-----5--|
A|-0-3---0-3---0--3---0-3---0-3---0-3---0-3---0-3----|
E|---------------------------------------------------|

E|--------------------------|
B|--------------------------|
G|--------------------------|
D|-----5-----5-----5-----5--|
A|-0-3---0-3---0-3---0-3----|
E|--------------------------|

Riff 2
E|--------------------------------------|
B|--------------------------------------|
G|--------------------------------------|
D|--------------------------------------|
A|-----5-----5-----5-----5-----5-----5--|
E|-0-3---0-3---0-3---0-3---0-3---0-3----|

Shelaaaaaa
         D  D    (Riff 2)
Shelaaaaaa
     D  D    (Riff 2)
Shelaaaaaaaaaaaaaaaaaaaaaa
     D   D       C   C       A[x7]  (Riff 2)

(Riff 1)
Termina com [Riff 2]
Composição de Aerosmith / Brad Whitford / Joe Perry / Joey Kramer / Steven Tyler / Tom Hamilton
Colaboración y revision:
  • Knupp Mello
2 reproducciones
    • ½ Tono
    • A
    • Bb
    • B
    • C
    • Db
    • D
    • Eb
    • E
    • F
    • F#
    • G
    • Ab
  • Adicionar à lista

    0 comentarios

    Ver todos os comentários

    ¿Conseguiste tocar?

    0 Tocaram 0 Ainda não

    Grave um vídeo tocando Shela e nos envie!

    00:00 / 00:00
    outros vídeos desta música
    repetir qualidade Automático
    Outros vídeos desta música
    00:00 / 00:00
    Automático
    OK