Cifra Club

Aprenda

Sos Too Bad

Aerosmith

Tablatura: Principal (guitarra)
tono: B
Aerosmith - S.O.S. (Too Bad)
Intro:

E.|---------------------------------------------|
B.|---------------------------------------------|
G.|---------------------------------------------|
D.|-6/4---------------------6/4-----------------------|
A.|-----------6--0/2/4---------------6/0/2/4/2-----------------|
E.|---------------------------------------------|

E.|---------------------------------------------|
B.|---------------------------------------------|
G.|---------------------------------------------|
D.|-6/4-------------------------------------------|
A.|---------6/0/2/4/2------------------------------------|
E.|--------------------------4-------------------|

E.|---------------------------------------------|
B.|---------------------------------------------|
G.|---------------------------------------------|
D.|-6/4---------------------------5-----------------|
A.|----------6/2/4/2------------5-----------------------|
E.|-------------------------2-----3---------------|
        


E
Stagecoach lady hourglass body
C#5
Makin' things glow in the night
E
Well she would if she could
                         
And she'd be good if she would
C#5         
Only be a lover she'd be out tonight


D#5                 C#5                     D#5
'Cause I'm a bad a lonely school-boy and I'm a rat
E.|---------------------------------------------|
B.|---------------------------------------------|
G.|---------------------------------------------|
D.|-6/4-------------------------------------------|
A.|---------6/0/2/4/2----------4--------------------------|
E.|--------------------------4----4---------------|

And it's too bad can't get me none a that
E                                     C#5
Salt Lake City salt lickin' biddies bogus honey stinkin' a gin
E                                     C#5
Well my daddy was hard his face was pretty scarred from kickin' ass
And playin' poker to win

D#5                                      C#5               D#5
'Cause I'm a bad lonely school-boy and I'm a rat
E.|------------------------------------------16---|
B.|---------------------------------------------|
G.|---------------------------------------------|
D.|-6/4-------------------------------------------|
A.|---------6/0/2/4/2----------4--------------------------|
E.|--------------------------4----4---------------|
And it's too bad can't get me none a that
E              C#5   D#5
It's too bad
E.|------------------------------------------16---|
B.|---------------------------------------------|
G.|---------------------------------------------|
D.|-6/4-------------------------------------------|
A.|---------6/0/2/4/2----------4--------------------------|
E.|--------------------------4----4---------------|
And it's too bad can't get me none a that
BASE SOLO - 

E.|---------------------------------------------|
B.|---------------------------------------------|
G.|---------------------------------------------|
D.|-6/4---------------------6/4-----------------------|
A.|-----------6--0/2/4---------------6/0/2/4/2-----------------|
E.|---------------------------------------------|

E.|---------------------------------------------|
B.|---------------------------------------------|
G.|---------------------------------------------|
D.|-6/4-------------------------------------------|
A.|---------6/0/2/4/2------------------------------------|
E.|--------------------------4-------------------|


E.|------------------------------------------16---|
B.|---------------------------------------------|
G.|---------------------------------------------|
D.|-6/4-------------------------------------------|
A.|---------6/0/2/4/2----------4--------------------------|
E.|--------------------------4----4---------------|

Solo - ( E    C#5    B5    F#5   G#5) ( E   C#5    D#5)
E.|-----------9/11--------------------------7/9-------------------|
B.|-9/11---------------7----------7/9-----------------------------|
G.|--------------------------6------------------------------|
D.|--------------------------------------------------------|
A.|---------------------------------------------------------|
E.|---------------------------------------------------------|

E.|----11-14/16-11—9---------------------------------------------|
B.|----------------------11/9----------------------------------|
G.|--------------------------------11/9----6-------------------|
D.|--------------------------------------------------------|
A.|--------------------------------------------------------|
E.|---------------------------------------------------------|




E.|------------------------------------------16---|
B.|---------------------------------------------|
G.|---------------------------------------------|
D.|-6/4-------------------------------------------|
A.|---------6/0/2/4/2----------4--------------------------|
E.|--------------------------4----4---------------|
And it's too bad can't get me none a that



E                                   C#5
Loose old lady my mama Katie chivalry was born at her feet
E                                   C#5
Well she shoulda' thought twice when pa showed his dice

At night she put my daddy to sleep
D#5                   C#5                   D#5
'Cause I'm a bad a lonely school-boy and I'm a rat
E.|------------------------------------------16---|
B.|---------------------------------------------|
G.|---------------------------------------------|
D.|-6/4-------------------------------------------|
A.|---------6/0/2/4/2----------4--------------------------|
E.|--------------------------4----4---------------|
                
And it's too bad can't get me none a that
(E              C#5            D#5)
It's too bad Lord it's too bad
I said it's too bad Lord it's too bad... yea
I said it's too bad it's too bad
E.|---------------------------------------------|
B.|---------------------------------------------|
G.|---------------------------------------------|
D.|-6/4--------------------------6------------------|
A.|-----------6--0/2/4/2------6--------------------------|
E.|------------------------------4---------------|
                                                     F#5    G#5
You know it's too bad... aaahh it's too bad
Composição de Steven Tyler
Colaboración y revision:
  • eduardo martins
53 reproducciones
    • ½ Tono
    • A
    • Bb
    • B
    • C
    • Db
    • D
    • Eb
    • E
    • F
    • F#
    • G
    • Ab
  • Adicionar à lista

    0 comentarios

    Ver todos os comentários

    ¿Conseguiste tocar?

    0 Tocaram 0 Ainda não

    Grave um vídeo tocando Sos Too Bad e nos envie!

    00:00 / 00:00
    outros vídeos desta música
    repetir qualidade Automático
    Outros vídeos desta música
    00:00 / 00:00
    Automático
    OK