Cifra Club

Aprenda

Sunshine

Aerosmith

Tablatura: Principal (guitarra)
tono: F#
(Rafael Cunha 28/04/01)

Intro: F#m B  D A ( 4x ) [ riff 1, riff 2, riff 1, riff 2 ]

Riff 1:
E|--------------------------------------------------
B|---------------------------------------------------
G|---------------------------------------------------
D|--------------------------2------------------------
A|---------2---------5-5----------------------------
E|----2--------------------------5---4---2---------

Riff 2:
E|---------------------------------------------------
B|---------------------------------------------------
A|---------------------------------------------------
D|------------------------2--------------------------
A|------2---------5-5-------------------2---4-----
E|---2--------------------------5----5------------2-

             Riff 3: F#m
E|---------------------2----------------
B|---------------------2----------------
G|---------------------2---------------
D|---------------------4---------------
A|----------2-----4---4------------------
E|-----5---------------2----------------

F#5       B5          D5          A5 G#5
I sold my soul for a one night stand
F#5       B5          D5        A5 G#5 ( riff 3 )
I followed Alice into Wonderland
F#5        B5        D5        A5  G#5
I ate the mushroom and I danced with the queen
         D5     A5         C#5   B5  A5 G#5
Yeah we danced in between all the lines
F#5       B5          D5          A5  G#5
I followed daylight right into the dark
F#5       B5          D5          A5  G#5 (riff 3 )
Took to the Hatter like a walk in the park
F#5       B5          D5          A5  G#5
But then I met her yeah she felt so right
          D5      A5         C#5  B5 A5 G#5
No child of the night yeah was she
Refrão:
               F#5   D5 B5
They called her sunshine
    G#5             F#5   D5
The kind that everybody knows
C#5    B5
Yeah yeah
 F#5   D5 B5
Sunshine
      G#          F#      D
She finer than a painted rose
C#    B
Yeah yeah
C#5  B5  A5  F#5
Sun..shine yeah

F#5       B5         D5        A5 G#5
Her kind of love's what I adore
F#5      B5          D5         A5 G#5 ( riff 3 )
What kind of trouble am I in for
F#5      B5          D5           A5 G#5
My kind of heaven lies at hell's back door
          D5     A5       C#5 B5 A5 G#5
And I got more than I need
               F#5 D5 B5
Cuz I need sunshine
    G#5             F#5   D5
The kind that everybody knows
C#5    B5
Yeah yeah
   F#5   D5 B5
My sunshine
    G#5              F#5     D5
She finer than a painted rose
C#5    B5
Yeah yeah
C#5 B5   A5 F#5
Sunshine yeah


Solo: C#   B   G#m   B   C#   B   G#m    B   C#   B  G#m   B     C#     B     
      Abm    G#  G      F# (aqueles sons eletronicos)

F#5        B5          D5         A5 G#5
I got the karma but it don't come free
F#5         B5          D5          A5 G#5( riff 3 )
I'll chase that rabbit up her bodi tree
F#5       B5            D5          A5 G#5
The caterpillar's tryin' to cop a plea
          D5    A5            C#5  B5 A5 G#5
But the smoke ain't got nothin' on me
                        
               F#5  D5   B5
Ya gotta have my sunshine
    G#5             F#5   D5
The kind that everybody knows
 C#5   B5       F#5  D5 B5
Yeah yeah My sunshine
     G#5            F#5     D5
She finer than a painted rose
 C#5   B5
Yeah yeah
       F#5  D5 B5
She's sunshine
     G#5        F#5       D5
The kind that everybody knows
 C#5   B5
Yeah yeah
 F#5 D5 B5
Sunshine
     G#5            F#5     D5
She finer than a painted rose
C#5    B5
Yeah yeah
C#5  B5
Sunshine
C#5 B5     A5
Sunshine yeah

Composição de Marti Frederiksen / Steven Tyler / Tony Perry
Colaboración y revision:
  • Gabriel Colombo
231 reproducciones
    • ½ Tono
    • A
    • Bb
    • B
    • C
    • Db
    • D
    • Eb
    • E
    • F
    • F#
    • G
    • Ab
  • Adicionar à lista

    0 comentarios

    Ver todos os comentários

    ¿Conseguiste tocar?

    4 Tocaram 0 Ainda não

    Grave um vídeo tocando Sunshine e nos envie!

    00:00 / 00:00
    outros vídeos desta música
    repetir qualidade Automático
    Outros vídeos desta música
    00:00 / 00:00
    Automático
    OK