Cifra Club

Pipeline

Agent Orange

Cifrado: Principal (guitarra y guitarra eléctrica)
tono: C
Intro:  
e|------------------------------------------------------------------------|  
B|------------------------------------------------------------------------|  
G|------------------------------------------------------------------------|  
D|--2--------------------------------------------------1------------------|  
A|--2---------------------------------------------------------------------|  
E|--0----------------14-13-12-11--------->1-------------------------------|  
 
Verso  
----PM----  
      Em F#
e|------------------------------------------------------------------------|  
B|------------------------------------------------------------------------|  
G|------------------------------------------------------------------------|  
D|------------------------------------------------------------------------|  
A|----22-22---------------------------------------------------------------|  
E|----00-33---------------------------------------------------------------|  
 
(Coro) 1ª parte:  
e|------------------------------------------------------------------------|  
B|------------------------------------------------------------------------|  
G|------------------------------------------------------------------------|  
D|-----0--2--0--2--4--2--0--2--4--2--4--2--0--2--0------------------------|  
A|---2---------------------------------------------2----------------------|  
E|------------------------------------------------------------------------|  
 
(Coro) 2ª parte:
e|------------------------------------------------------------------------|  
B|------------------------------------------------------------------------|  
G|-----0--2--0--2--4--2--0--2--4--2--4--2--0--2--0------------------------|  
D|---2------------------------------------------------2-------------------|  
A|------------------------------------------------------------------------|  
E|------------------------------------------------------------------------|  
 
(Coro) 3ª parte:  
-------PM------  
e|------------------------------------------------------------------------|  
B|------------------------------------------------------------------------|  
G|------------------------------------------------------------------------|  
D|---999999-101010101010---X2---999999999---7-------same as in------------|  
A|---999999-101010101010--------999999999---7--------intro----------------|  
E|---777777-8-8-8-8-8-8---------777777777---5-----14>>>>>>>>>>>>1---------|  
 
Ponte:  
e|----------------0-------------------------------------------------------|  
B|--1-----------1---3-1--0----------0-3-1---------------1-0---------------|  
G|-----2-2--2-2------------0-0--0-0--------2----------2-----21212121------|  
D|-------------------------------------------3-3--3-3---------------------|  
A|------------------------------------------------------------------------|  
E|------------------------------------------------------------------------|  
 

Nesta ordem:
Intro  
Verso  
Coro 
Verso  
Coro  
Ponte  
Verso
Composición de Bob Spickard / Brian Carman
Colaboración y revisión:
  • Franklin Carvalho
134 vistas
    • ½ Tono
    • A
    • Bb
    • B
    • C
    • Db
    • D
    • Eb
    • E
    • F
    • F#
    • G
    • Ab
  • Agregar a la lista

    0 comentarios

    Ver todos los comentarios

    ¿Lograste tocar?

    0 Tocaron 0 Aún no

    ¡Graba un video tocando Pipeline y envíanoslo!

    00:00 / 00:00
    Outros vídeos desta música
    Repetir Calidad Automático
    Outros vídeos desta música
    00:00 / 00:00
    Automático
    OK