Cifra Club

Almas Gêmeas

Agnela

Cifrado: Principal (guitarra y guitarra eléctrica)
tono: D
(intro) D   A   Bm   G

E |---------------------------------------------------------|
B |---------------------------------------------------------|
G |--7---7----9-7-6---7---7---------7----7---9--7-6-7-------| 2x
D |----7----------------7----9-7-7----7----------------9----|
A |---------------------------------------------------------|
E |---------------------------------------------------------|

E |-----------------14-------------14-----------|
B |-------------14---------------------14-------|
G |-------12-------------------12---------------|
D |---12-------------------12-------------------|
A |---------------------------------------------|
E |---------------------------------------------|
(durante o verso)

D         A          Bm     G
São seres que se pertencem
D         A          Bm     G
São seres civilizados
D         A          Bm     G
São seres que sabe o que querem
D         A          Bm     G
Mas muitas vezes estão separados
D         A          Bm     G
Pela distância ou pela idade
D         A          Bm     G
Pelo o tempo ou pela realidade

E |-----------------------------|
B |-----------------------------|
G |--7----9----11----12----14---|
D |--7----9----11----12----14---|
A |--5----7----9-----10----12---|
E |-----------------------------|

(D  A  Bm G)

D     A      Bm     G
Somos almas gemeas (Sem algemas)
D     A         Bm     G
É o encontro do corpo (Da alma e do coraçao)
D      A      Bm     G
Desejo amor e paixão
D  A        Bm    G
Em qualquer ocasião

(repete intro)

D         A          Bm     G
As vezes estão tão pertos
D         A          Bm     G
As vezes estão separados
D         A          Bm     G
pelo destino ou por que
D         A          Bm     G
ainda não se encontraram
D         A          Bm     G
até na mesma cidade
D         A          Bm     G
mas procuram tão longe
D         A          Bm     G
A própria felicidade

E |-----------------------------|
B |-----------------------------|
G |--7----9----11----12----14---|
D |--7----9----11----12----14---|
A |--5----7----9-----10----12---|
E |-----------------------------|

(D  A  Bm  G)
(neste verso faz o solo)

E |------------------------------------------------------5-----5-----------|
B |------------------------------------------8-7-------7h---7h-----5h------|
G |---7--9h---7--6---7---7--6-------------7-------9--7-----------------7---|
D |-7-------------------------7--5--7---7----------------------------------|
A |------------------------------------------------------------------------|
E |------------------------------------------------------------------------|

D     A      Bm     G
Somos almas gemeas (Sem algemas)
D     A         Bm     G
É o encontro do corpo (Da alma e do coraçao)
D      A      Bm     G
Desejo amor e paixão
D  A        Bm    G
Em qualquer ocasião
D     A      Bm     G
Te Amareeeeeeeeeiiiiii

Aumenta o
E     B      C#m    A
Somos almas gemeas (Sem algemas)
E     B         C#m    A
É o encontro do corpo (Da alma e do coraçao)
E      B      C#m     A
Desejo amor e paixão
E  B        C#m   A
Em qualquer ocasião
E     B      C#m     A
Te Amareeeeeeeeeeiiiiii
00:00 / 00:00
Otros videos de esta canción
Repetir
Otros videos de esta canción
Composición de Andréa Ribeiro
Colaboración y revisión:
  • Grazielle teixeira
  • Liliane Lima
36 vistas
    • ½ Tono
    • A
    • Bb
    • B
    • C
    • Db
    • D
    • Eb
    • E
    • F
    • F#
    • G
    • Ab
  • Agregar a la lista

    0 comentarios

    Ver todos los comentarios

    ¿Lograste tocar?

    0 Tocaron 0 Aún no

    ¡Graba un video tocando Almas Gêmeas y envíanoslo!

    00:00 / 00:00
    OK