Cifra Club

Podia Ser

Agnela

Cifrado: Principal (guitarra y guitarra eléctrica)
tono: D
(intro)

E|------------------------------------------------------0---|
B|-------5----------5---------5--------5---------5------5---|
G|--------6-----------6--------6---------6---------6----6---| (3x)
D|---6-----------6--------6---------6---------6---------6---| (toca 1 vez sem vocal)
A|-4------------------------------4---------------------0---|
E|------------4---------5------------------4------------5---|

Não sei por que você não quis ligar
Não te ouvi mais
Não sei por que você não quis me ver
Não vou sonhar

C#m              G#                A                F#
 Será que é tão difícil assim, te mostrar te explicar
C#m              G#                A           B
 Será que é tão difícil assim, te fazer entender
C#m              G#                A         F#
 começou no início mas terminou sem final
C#m              G#      A            B
 Será que é tão difícil assim pra você

E                B        C#m        B
       Sei que o dia já se foi pra você
E              B           C#m        B
       Mas podia ser nós dois outra vez

E|------0-----------0--------0---------0---------0-------0---|
B|-------------------------------------------------------5---|
G|--------6-----------6--------6---------6---------6-----6---|
D|---6-----------6--------6---------6---------6----------6---|
A|-4------------------------------4----------------------0---|
E|------------4---------5------------------4-------------5---|

Busquei, tentei, nada de te encontrar
Não sorri mais

C#m      G#       A
 Sonhei, chorei,

E|-------------------------------------------|
B|------5---------5----------5---------5-----|
G|--------6----------6---------6---------6---|
D|---6-----------6--------6---------6--------|
A|-4------------------------------4----------|
E|------------4---------5--------------------|

tudo me faz lembrar de um tempo atrás

C#m              G#                    A              F#
 Será que é tão difícil assim de entender, de aceitar?
C#m              G#                A                B
 Será que é tão difícil assim não lembrar de você
C#m            G#                A          F#
 Começou no início mas terminou sem um fim
C#m              G#         A       B
 Será que é tão difícil assim pra mim?

E                B        C#m         B
       Sei que o dia já se foi pra você
E              B           C#m        B
       Mas podia ser nós dois outra vez

E|---------------------
B|---------------------
G|--5--7--12--11-9-----
D|--X--X--X---X--X-----
A|--3--5--10--9--7-----
E|---------------------

C                 D        G           F#m
       Mas não diga que você não quer saber
C              D         F#m  G    A    B
       Mas não diga, não diga, não diga

E|-------------------------------
B|-------------------------------
G|--5--7--9--11--12---14---------
D|--X--X--X--X---X----X----------
A|--3--5--7--9---10---12---------
E|-------------------------------

 E                B        C#m         B
       Sei que o dia já se foi pra você
 E              B           C#m        B
       Mas podia ser nós dois outra vez
 E                B        C#m         B
       Sei que o dia já se foi pra você     (2x)
 E              B           C#m        B
       Mas podia ser nós dois outra vez
00:00 / 00:00
Otros videos de esta canción
Repetir
Otros videos de esta canción
Composición de Beta / Deia / Loma / Millah / Nath
74 vistas
    • ½ Tono
    • A
    • Bb
    • B
    • C
    • Db
    • D
    • Eb
    • E
    • F
    • F#
    • G
    • Ab
  • Agregar a la lista

    0 comentarios

    Ver todos los comentarios

    ¿Lograste tocar?

    12 Tocaron 0 Aún no

    ¡Graba un video tocando Podia Ser y envíanoslo!

    00:00 / 00:00
    OK