Cifra Club

Subliminar

Agnela

Cifrado: Principal (guitarra y guitarra eléctrica)
tono: Bb
(intro 3x) Gm  Bb  C  F  Gm  Bb  Eb

E|----------------------------------------------------
B|----------------------------------------------------
G|------10---12---12h14p12---10--9-----10--10h12--10---
D|---12-----------------------------12-----------------
A|-----------------------------------------------------
E|-----------------------------------------------------

E|-----------------------------------------------------------
B|------------------------------13-11--10-11-10--------------
G|------10---12---12h14p12---10-------------------12--10------
D|---12---------------------------------------------------12--
A|------------------------------------------------------------
E|------------------------------------------------------------

Gm                       Bb
   Sei que nunca fui melhor
                   F
   Meu desejo é fugir

   Ir a um novo lugar
Cm                      Gm
   Que você não vai chegar

Gm                    Bb
   Eu me lembro de dizer
                           F
   Meu tempo não vai se esgotar

   Você é tudo aquilo
     Cm             Eb
   Que eu ouvi falar

Eb            F       Gm      Eb    Gm Eb
   Tente entender o poooorqueeeeeeee
Eb          F
   Que eu parti

Bb              F/A               Gm
   Quero ter alguém pra chamar de meu
                   Eb
   Por todo esse espaço que você me deu
Bb              F/A
   Amor subliminar
                   Gm
  Escondido em um olhar
       Eb
   Só meu

(solo 2x) Gm  Bb  C  F  Gm  Bb  Eb

Gm                      Bb
   Sei que posso ser alguém
                         F
   Bem melhor do que já fui
                       Cm
   O tempo passa e vejo que você
              Gm
   Não me possui
Gm                       Bb
   A cada caso que eu tiver
                      F
   Pra espantar a solidão

   Não posso mais viver
      Cm         Eb
   Assim na sua mão

Eb            F       Gm      Eb    Gm Eb
   Tente entender o poooorqueeeeeeee
Eb          F
   Que eu parti

Bb              F/A               Gm
   Quero ter alguém pra chamar de meu
                   Eb
   Por todo esse espaço que você me deu
Bb              F/A
   Amor subliminar
                   Gm
  Escondido em um olhar
       Eb F
   Só meu

Bb
   Quero um tempo pra poder cuidar de mim
Gm
   Nem tudo tem que sempre terminar assim
Eb
   A culpa é sua por criar esse amor
F
   Subliminar  subliminar
Bb
   O seu anonimato não vou aceitar
Gm
   Não estarei aqui quando você acordar
Eb
   Ta tudo certo

   Ta tudo bem
               F
   Só não esqueci de te esquecer

   Não sei porque  subliminar  subliminar

Bb              F/A               Gm
   Quero ter alguém pra chamar de meu
                   Eb
   Por todo esse espaço que você me deu
Bb              F/A
   Amor subliminar
                   Gm
  Escondido em um olhar
       Eb F
   Só meu

(solo 2x) Gm  Bb  C  F  Gm  Bb  Eb
00:00 / 00:00
Otros videos de esta canción
Repetir
Otros videos de esta canción
Composición de Agnela
Colaboración y revisión:
  • Bruna Sereno
  • Nanda
  • Lennon Kitaro
23 vistas
    • ½ Tono
    • A
    • Bb
    • B
    • C
    • Db
    • D
    • Eb
    • E
    • F
    • F#
    • G
    • Ab
  • Agregar a la lista

    0 comentarios

    Ver todos los comentarios

    ¿Lograste tocar?

    1 Tocaron 0 Aún no

    ¡Graba un video tocando Subliminar y envíanoslo!

    00:00 / 00:00
    OK