Cifra Club

Pretender (Acoustic)

AJR

Cifrado: Principal (guitarra y guitarra eléctrica)
tono: Bbm (con acordes en la forma de Gm) Capotraste en 3ª casa
[Intro]

   Em                 C                 G                 D       Eb
E|-----------------| ------------------|-----------------|-----------2---2-|
B|---0---0---0---0-| ----1---1---1---1-|---0---0---0---0-|---3---3---------|
G|---0---0---0---0-| ----0---0---0---0-|---0---0---0---0-|---2---2---2---2-|  x1
D|-----------------| ------------------|-----------------|-0---0---1---1---|
A|-----------------| --3---3---3---3---|-----------------|-----------------|
E|-0---0---0---0---| ------------------|-3---3---3---3---|-----------------|

[Primeira parte] 

   Em                 C                 G                 D       Eb
E|-----------------| ------------------|-----------------|-----------2---2-|
B|---0---0---0---0-| ----1---1---1---1-|---0---0---0---0-|---3---3---------|
G|---0---0---0---0-| ----0---0---0---0-|---0---0---0---0-|---2---2---2---2-|  x3
D|-----------------| ------------------|-----------------|-0---0---1---1---|
A|-----------------| --3---3---3---3---|-----------------|-----------------|
E|-0---0---0---0---| ------------------|-3---3---3---3---|-----------------|

     Em                C                 G                 D       Eb
E|-----------------| ------------------|-----------------|-2-2-2-2-2-2-2-2-|
B|---0---0---0---0-| ----1---1---1---1-|---0---0---0---0-|-3-3-3-3-0-0-0-0-|
G|---0---0---0---0-| ----0---0---0---0-|---0---0---0---0-|-2-2-2-2-2-2-2-2-| x1
D|-----------------| ------------------|-----------------|-0-0-0-0-1-1-1-1-|
A|-----------------| --3---3---3---3---|-----------------|-----------------|
E|-0---0---0---0---| ------------------|-3---3---3---3---|-----------------|

[Pré-refrão] 
   
    Em                C                 G                 D       Eb         
E|-0-0-0-0-0-0-0-0-| --0-0-0-0-0-0-0-0-|-3-3-3-3-3-3-3-3-|-2-2-2-2-2-2-2-2-|
B|-0-0-0-0-0-0-0-0-| --1-1-1-1-1-1-1-1-|-3-3-3-3-3-3-3-3-|-3-3-3-3-0-0-0-0-|
G|-0-0-0-0-0-0-0-0-| --0-0-0-0-0-0-0-0-|-0-0-0-0-0-0-0-0-|-2-2-2-2-2-2-2-2-|  x2
D|-2-2-2-2-2-2-2-2-| --2-2-2-2-2-2-2-2-|-0-0-0-0-0-0-0-0-|-0-0-0-0-1-1-1-1-|
A|-2-2-2-2-2-2-2-2-| --3-3-3-3-3-3-3-3-|-2-2-2-2-2-2-2-2-|-0-0-0-0-0-0-0-0-|
E|-0-0-0-0-0-0-0-0-| ------------------|-3-3-3-3-3-3-3-3-|-----------------|

[Refrão] 

    Em                C                 G                 D           Eb 
E|-0-0-| X-X-X-X-X-X-|-0-0-X-X-X-X-X-X-|-3-3-X-X-X-X-X-X-|-2-2-X-X-X-X-2-2-X-X-X-X-|
B|-0-0-| X-X-X-X-X-X-|-1-1-X-X-X-X-X-X-|-3-3-X-X-X-X-X-X-|-3-3-X-X-X-X-0-0-X-X-X-X-|
G|-0-0-| X-X-X-X-X-X-|-0-0-X-X-X-X-X-X-|-0-0-X-X-X-X-X-X-|-2-2-X-X-X-X-2-2-X-X-X-X-|  x2
D|-2-2-| X-X-X-X-X-X-|-2-2-X-X-X-X-X-X-|-0-0-X-X-X-X-X-X-|-0-0-X-X-X-X-1-1-X-X-X-X-|
A|-2-2-| X-X-X-X-X-X-|-3-3-X-X-X-X-X-X-|-2-2-X-X-X-X-X-X-|-0-0-X-X-X-X-0-0-X-X-X-X-|
E|-0-0-| X-X-X-X-X-X-|-----------------|-3-3-X-X-X-X-X-X-|-------------------------|

[Transição] 

   Em
E|-----------------|
B|---0---0---0---0-|
G|---0---0---0---0-|
D|-----------------|
A|-----------------|
E|-0---0---0---0---|

[Segunda parte] 

    Em                C                 G                 D        Eb
E|-----------------| ------------------|-----------------|-----------2---2-|
B|---0---0---0---0-| ----1---1---1---1-|---0---0---0---0-|---3---3---------|
G|---0---0---0---0-| ----0---0---0---0-|---0---0---0---0-|---2---2---2---2-|  x3
D|-----------------| ------------------|-----------------|-0---0---1---1---|
A|-----------------| --3---3---3---3---|-----------------|-----------------|
E|-0---0---0---0---| ------------------|-3---3---3---3---|-----------------|

      Em                C                 G                 D       Eb
E|-----------------| ------------------|-----------------|-2-2-2-2-2-2-2-2-|
B|---0---0---0---0-| ----1---1---1---1-|---0---0---0---0-|-3-3-3-3-0-0-0-0-|
G|---0---0---0---0-| ----0---0---0---0-|---0---0---0---0-|-2-2-2-2-2-2-2-2-| x1
D|-----------------| ------------------|-----------------|-0-0-0-0-1-1-1-1-|
A|-----------------| --3---3---3---3---|-----------------|-----------------|
E|-0---0---0---0---| ------------------|-3---3---3---3---|-----------------|

[Pré-refrão] 
   
    Em                C                 G                 D       Eb
E|-0-0-0-0-0-0-0-0-| --0-0-0-0-0-0-0-0-|-3-3-3-3-3-3-3-3-|-2-2-2-2-2-2-2-2-|
B|-0-0-0-0-0-0-0-0-| --1-1-1-1-1-1-1-1-|-3-3-3-3-3-3-3-3-|-3-3-3-3-0-0-0-0-|
G|-0-0-0-0-0-0-0-0-| --0-0-0-0-0-0-0-0-|-0-0-0-0-0-0-0-0-|-2-2-2-2-2-2-2-2-|  x2
D|-2-2-2-2-2-2-2-2-| --2-2-2-2-2-2-2-2-|-0-0-0-0-0-0-0-0-|-0-0-0-0-1-1-1-1-|
A|-2-2-2-2-2-2-2-2-| --3-3-3-3-3-3-3-3-|-2-2-2-2-2-2-2-2-|-0-0-0-0-0-0-0-0-|
E|-0-0-0-0-0-0-0-0-| ------------------|-3-3-3-3-3-3-3-3-|-----------------|

[Refrão] 

    Em                C                 G                 D           Eb
E|-0-0-| X-X-X-X-X-X-|-0-0-X-X-X-X-X-X-|-3-3-X-X-X-X-X-X-|-2-2-X-X-X-X-2-2-X-X-X-X-|
B|-0-0-| X-X-X-X-X-X-|-1-1-X-X-X-X-X-X-|-3-3-X-X-X-X-X-X-|-3-3-X-X-X-X-0-0-X-X-X-X-|
G|-0-0-| X-X-X-X-X-X-|-0-0-X-X-X-X-X-X-|-0-0-X-X-X-X-X-X-|-2-2-X-X-X-X-2-2-X-X-X-X-|  x2
D|-2-2-| X-X-X-X-X-X-|-2-2-X-X-X-X-X-X-|-0-0-X-X-X-X-X-X-|-0-0-X-X-X-X-1-1-X-X-X-X-|
A|-2-2-| X-X-X-X-X-X-|-3-3-X-X-X-X-X-X-|-2-2-X-X-X-X-X-X-|-0-0-X-X-X-X-0-0-X-X-X-X-|
E|-0-0-| X-X-X-X-X-X-|-----------------|-3-3-X-X-X-X-X-X-|-------------------------|

[Final]
   
    Em                C                 G                 D      Eb
E|-0-0-0-0-0-0-0-0-| --0-0-0-0-0-0-0-0-|-3-3-3-3-3-3-3-3-|-2-2-2-2-2-2-2-2-|
B|-0-0-0-0-0-0-0-0-| --1-1-1-1-1-1-1-1-|-3-3-3-3-3-3-3-3-|-3-3-3-3-0-0-0-0-|
G|-0-0-0-0-0-0-0-0-| --0-0-0-0-0-0-0-0-|-0-0-0-0-0-0-0-0-|-2-2-2-2-2-2-2-2-|
D|-2-2-2-2-2-2-2-2-| --2-2-2-2-2-2-2-2-|-0-0-0-0-0-0-0-0-|-0-0-0-0-1-1-1-1-|
A|-2-2-2-2-2-2-2-2-| --3-3-3-3-3-3-3-3-|-2-2-2-2-2-2-2-2-|-0-0-0-0-0-0-0-0-|
E|-0-0-0-0-0-0-0-0-| ------------------|-3-3-3-3-3-3-3-3-|-----------------|

[Intro] Em  C  G  D  Eb 

[Primeira parte]

Em              C 
  I'm a good pretender
                       G    D  Eb
Won't you come see my show?
Em                    C
  I've got lots of problems
                        G     D  Eb
Well, good thing nobody knows 
Em                       C
  Oh, I'm insecure, I'm insecure
                          G
I think I like what I'm supposed to
               D    Eb
Like what I'm supposed to

Em                            C
  I don't even mess with drugs
                               G
I do that 'cause you say it's dope to
             D   Eb  
You say it's dope to

[Pré-refrão]

Em
I'm a good pretender
C
I'm not really cool
G                   D
I'm a good pretender
            Eb
'Cause I'm just like you
Em
I do not belong here
C
You all clearly do
G                       D
But I'm a good pretender
        Eb
So I'm just like

[Refrão]

( Em  C )

 G            D   Eb
I'm a good pretender

  Em  C 
  
 G            D   Eb
I'm a good pretender

[Segunda parte]

Em                C
  I'm a good pretender
                    G    D  Eb
All our motions in sync
Em                      C
  Don't you think I'm clever
                           G    D  Eb
We laugh at all the same things

Em                         C
  Oh, I'm insecure, I'm insecure
                            G
I think I like what I'm supposed to
               D    Eb  
Like what I'm supposed to
Em                       C
I don't even mess with drugs
                               G
I do that 'cause you say it's dope to
              D   Eb
You say it is dope to

Em
I'm a good pretender
C
I'm not really cool
G                   D
I'm a good pretender
            Eb 
'Cause I'm just like you
Em
I do not belong here
C
You all clearly do
G                       D
But I'm a good pretender
        Eb
So I'm just like

[Refrão]

( Em  C )

 G            D   Eb
I'm a good pretender

( Em  C )

 G            D   Eb   
I'm a good pretender

[Final]

Em                    C
  I'm just like you, do you like me too?
G                      D
  Now I'm just like you
       Eb
I'm a good pretender
Composición de Steve Aoki / Adam Met / Jack Met / Ryan Met
Colaboración y revisión:
  • Plínio Lucena
115 vistas
    • ½ Tono
    • Am
    • Bbm
    • Bm
    • Cm
    • C#m
    • Dm
    • Ebm
    • Em
    • Fm
    • F#m
    • Gm
    • G#m
  • Agregar a la lista

    0 comentarios

    Ver todos los comentarios

    ¿Lograste tocar?

    0 Tocaron 0 Aún no

    ¡Graba un video tocando Pretender (Acoustic) y envíanoslo!

    00:00 / 00:00
    Outros vídeos desta música
    Repetir Calidad Automático
    Outros vídeos desta música
    00:00 / 00:00
    Automático
    OK