Cifra Club

Aprenda

Smack That

Akon

Tablatura: Principal (guitarra)
tono: C#
Durante a msk tda.

e|------------------9-9-9-9-9-9-------8-8-8-8-8-8-------6-6-6-6-6-6-------8-8-8-6-4-6-8--------------------|
B|---------------------------------------------------------------------------------------------------------|
G|---------------------------------------------------------------------------------------------------------|
D|---------------------------------------------------------------------------------------------------------|
A|---------------------------------------------------------------------------------------------------------|
E|---------------------------------------------------------------------------------------------------------|

Refrão:

e|------------------9-9-9-9-9-9-------8-8-8-8-8-8-------6-6-9-9-6-9-------8-8-8-6-4-6-8--------------------|
B|---------------------------------------------------------------------------------------------------------|
G|---------------------------------------------------------------------------------------------------------|
D|---------------------------------------------------------------------------------------------------------|
A|---------------------------------------------------------------------------------------------------------|
E|---------------------------------------------------------------------------------------------------------|

Antes do refrão:

e|------------------9-9-9-9-9-9-------8-8-8-8-8-8-------6-6-6-6-6-6-------8-8-8-6-8-6-8-8------------------|
B|---------------------------------------------------------------------------------------------------------|
G|---------------------------------------------------------------------------------------------------------|
D|---------------------------------------------------------------------------------------------------------|
A|---------------------------------------------------------------------------------------------------------|
E|---------------------------------------------------------------------------------------------------------|

e|------------------9-9-9-9-9-9-11-9-----8-8-8-8-8-8-------6-6-6-6-4------8-8-8-6-4-6-8--------------------|
B|---------------------------------------------------------------------------------------------------------|
G|---------------------------------------------------------------------------------------------------------|
D|---------------------------------------------------------------------------------------------------------|
A|---------------------------------------------------------------------------------------------------------|
E|---------------------------------------------------------------------------------------------------------|

Final:

e|------------------9-9-9-9-9-9-------8-8-8-8-8-8-------6-6-9-9-6-9-------8-8-8-6-4-6-8-6-8-6-8-6-8--------|
B|---------------------------------------------------------------------------------------------------------|
G|---------------------------------------------------------------------------------------------------------|
D|---------------------------------------------------------------------------------------------------------|
A|---------------------------------------------------------------------------------------------------------|
E|---------------------------------------------------------------------------------------------------------|
Composição de Aliaune Akon Thiam / Luis Edgardo Resto / Marshall Mathers
Colaboración y revision:
  • Danilo Santos
99 reproducciones
    • ½ Tono
    • A
    • Bb
    • B
    • C
    • Db
    • D
    • Eb
    • E
    • F
    • F#
    • G
    • Ab
  • Adicionar à lista

    0 comentarios

    Ver todos os comentários

    ¿Conseguiste tocar?

    0 Tocaram 0 Ainda não

    Grave um vídeo tocando Smack That e nos envie!

    00:00 / 00:00
    outros vídeos desta música
    repetir qualidade Automático
    Outros vídeos desta música
    00:00 / 00:00
    Automático
    OK