Cifra Club

Dixieland Delight

Alabama

Chords: Principal (acoustic and electric guitars)
tone: G
 G                                     D
Rollin' down backwoods, Tennessee byway
Em             C
one arm on the wheele
          G               D
Holdin' my lover, with the other
 Em                  C
a sweet soft southern thrill
           G                      D
Worked hard all week, got a little jingle
     Em                C
on a Tennesse Saturday night
             G             D
Couldn't feel better, I'm together
       Cm    G4    G
with my Dixieland delight

             D                   Em                             C
Spend my dollar, parked in a holler 'neath the mountain moonlight
         G                      D
Hold her uptight, make a little lovin
               Em                        C
a little turtle-dovin' on the Mason-Dixon Line
        Em          C         Cm    G4    G
Fits my life, oh so right, my Dixieland delight

G                                D
White-tail buck deer, munchin' on clover
          Em                 C
red-tailed hawk, sittin' on a limb
           G                   D
Chubby ole groundhog, croakin' bullfrog
Em                       C
free as a feelin' in the wind
          G                         D
Home-grown country girl, gonna give me a real whirl
    Em                 C
on a Tennessee Saturday night
         G                D
Lucky as a seven, livin' in heaven
     Cm    G4    G
with my Dixieland delight

[Solo]

E|----------------------------------------------|
B|------------3----------------------3-5--------|
G|--------4-4---4-2--4-2-0-------2-4------------|
D|--0-2-5------------------2-4-5----------------|
A|----------------------------------------------|
E|----------------------------------------------|

E|------3-5b-5b-10-7-5------3-5b-5b-3-5-3~------|
B|--3-5-----------------3-5---------------------|
G|----------------------------------------------|
D|----------------------------------------------|
A|----------------------------------------------|
E|----------------------------------------------|
00:00 / 00:00
Other videos of this song
Repeat
Other videos of this song
514 views
    • ½ Tone
    • A
    • Bb
    • B
    • C
    • Db
    • D
    • Eb
    • E
    • F
    • F#
    • G
    • Ab
  • Add to list

Afinação da cifra

Afinador online

    00:00 / 00:00
    OK