Cifra Club

Are You Still Mad

Alanis Morissette

Cifrado: Principal (guitarra y guitarra eléctrica)
tono: F#
C#
e-|---2-1------|---2-1------|
B-|-------3----|-------3----|
G-|-1----------|-1----------|
D-|------------|------------|
A-|------------|------------|
E-|------------|------------|
intro
Chorus C# B F# C# Verse C#

 
C#
e-|---2-1------|---2-1------|---2-1------|---2-1-----
B-|-------3----|-------3----|-------3----|-------3---
G-|-1----------|-1----------|-1----------|-1---------
D-|------------|------------|------------|-----------
A-|------------|------------|------------|-----------
E-|------------|------------|------------|-----------

are you still mad {out of bed are you still mad {ultimatums


C#
e-|---2-1------|---2-1------|---2-1------|---2-1-----
B-|-------3----|-------3----|-------3----|-------3---
G-|-1----------|-1----------|-1----------|-1---------
D-|------------|------------|------------|-----------
A-|------------|------------|------------|-----------
E-|------------|------------|------------|-----------

are you still mad{all}{male friends}are you still mad {problems with everybody}


     C# strum   B strum     F# C# strum  C# strum   B strum F# C# strum
e-|-----4---------2----------2--4---------4---------2--------2--4-------
B-|-----6---------4----------2--6---------6---------4--------2--6-------
G-|-----6---------4----------3--6---------6---------4--------3--6-------
D-|-----6---------4----------4--6---------6---------4--------4--6-------
A-|-----4---------2----------4--4---------4---------2--------4--4-------
E-|-----x---------x----------2--x---------x---------x--------2--x-------
of course you are (you are) of course you are (you are)

4 ARE YOU STILL MAD (4:03)
are you still mad I kicked you out of bed?
are you still mad I gave you ultimatums?
are you still mad I compared you to all
my forty year old male friends?
are you still mad I shared our problems
with everybody?

are you still mad I had an emotional affair?
are you still mad I tried to mold you into
who I wanted you to be?
are you still mad I didn't trust your intentions?
of course you are
of course you are

are you still mad that I flirted wildly?
are you still mad I had a tendency to mother you?
are you still mad that I had one foot out of the door?
are you still mad that we slept together even after
we had ended it?
of course you are
of course you are

are you still mad I wore the pants most of the time?
are you still mad that I seemed to focus
only on your potential?
are you still mad that I threw in the towel?
are you still mad that I gave up long before you did?
of course you are
of course you are
Composición de Alanis Morissette / Glen Ballard
121 vistas
    • ½ Tono
    • A
    • Bb
    • B
    • C
    • Db
    • D
    • Eb
    • E
    • F
    • F#
    • G
    • Ab
  • Agregar a la lista

    0 comentarios

    Ver todos los comentarios

    ¿Lograste tocar?

    0 Tocaron 1 Aún no

    ¡Graba un video tocando Are You Still Mad y envíanoslo!

    00:00 / 00:00
    Otros videos de esta canción
    Repetir Calidad Automático
    Otros videos de esta canción
    00:00 / 00:00
    Automático
    OK