Cifra Club

Hand In My Pocket

Alanis Morissette

Cifrado: Versão 2 (guitarra y guitarra eléctrica)
tono: C
 Introd: 
e|----------------------------------------------------------| 
B|------0---1---0-----0---1---0-----0---1---0-----0---1---0-| 
G|----0---0---0-----0---0---0-----0---0---0-----0---0---0---| 
D|----------------------------------------------------------| 
A|----------------------------------------------------------| 
E|--3-------------3-------------3-------------3-------------| 
 
Riff:(Tocar seguidamente logo após a introdução) 
e|------------------------------------------------------------------------| 
B|------0---1---0-----0---1---0-----0---1---0-----0---1---0-----0---1---0-| 
G|----0---0---0-----0---0---0-----0---0---0-----0---0---0-----0---0---0---| 
D|------------------------------------------------------------------------| 
A|------------------------------------------------------------------------| 
E|--3-------------3-------------2-------------1-------------0-------------| 
  (I'm broke but I'm happy, I'm poor but I'm kind...) 
 
            e|---------------------------| 
            B|----0---1---3---1---0------| 
            G|------0---0---0---0------3-| 
            D|---------------------------| 
            A|--0-------------------1----| 
            E|---------------------------| 
(...all comes down to                   Is that everything's gonna be fine...) 
 
OBS: Este Riff deve ser tocado acompanhando a base da cifra abaixo 
 
 
Introd:(G D/F# F C9)2x 
 
      G                       D/F#                
I'm broke but I'm happy, I'm poor but I'm kind 
     F                      C9                   
I'm short but I'm healthy, yeah  
     G                         D/F#                        
I'm high but I'm grounded, I'm sane but I'm overwhelmed 
     F                     C9                            
I'm lost but I'm hopeful, baby  
                          
                       Am     Em          
And what it all comes down to  
C9                     D4      G                          
Is that everything's gonna be fine, fine, fine  
               Am                                        
Cause I got one hand in my pocket 
         C9            D4           G                   
And the other one is givin' a high five        
 
         G                       D/F#                            
I feel drunk but I'm sober, I'm young and I'm underpaid 
     F                      C9                         
I'm dyin' but I'm workin', yeah             
   G                         D/F#          
I care but I'm restless, I'm here but I'm really gone 
     F                   C9               
I'm wrong and I'm sorry, baby  
     
                       Am     Em              
And what it all comes down to 
C9                     D4       G         
Is that ev'rything's gonna be quite alright  
               Am                                  
Cause I got one hand in my pocket 
         C9            D4              G          
And the other one is flickin' a cigarette 
  
(instr.) 
                       Am      Em7             
And what it all comes down to 
C9                            D4          G      
Is that I haven't got it all figured out just yet 
               Am                                 
Cause I got one hand in my pocket 
         C9            D4            G             
And the other one is givin' a peace sign 
                                                
     G                        D/F#                         
I'm free but I'm focused, I'm green but I'm wise 
     F                      C9                          
I'm hard but I'm friendly, baby 
     G                        D/F#                            
I'm sad but I'm laughin', I'm brave but I'm chickenshit 
     F                    C9                                 
I'm sick but I'm pretty, baby 
                                                      
                       Am     Em7               
And what it all boils down to 
C9                          D4              G         
Is that no one's really got it figured out just yet 
              Am                                               
Well I got one hand in my pocket 
         C9                                          
And the other one is playin' a pianooooooo 
 
                       Am                Em7              
And what it all comes down to, my friend, yeah 
C9           D4             G                          
Is that everything is just fine, fine, fine 
               Am                               
Cause I got one hand in my pocket 
         C9           D4         G                  
And the other one is hailing a taxi cab... 
 
(instr.) 
  
00:00 / 00:00
Otros videos de esta canción
Repetir
Otros videos de esta canción
Composición de Alanis Morissette
150 vistas
    • ½ Tono
    • A
    • Bb
    • B
    • C
    • Db
    • D
    • Eb
    • E
    • F
    • F#
    • G
    • Ab
  • Agregar a la lista

    0 comentarios

    Ver todos los comentarios

    ¿Lograste tocar?

    1 Tocaron 0 Aún no

    ¡Graba un video tocando Hand In My Pocket y envíanoslo!

    00:00 / 00:00
    OK