Cifra Club

El Pisito

Albertucho

Chords: Principal (acoustic and electric guitars)
tone: C
INTRO 

 e||----------------------------------|| 
B||---1--1----0--000-0h1p0-----------|| 
G||---2----2--0--000-------0-0-------|| 
D||---2-------0----------------3-2---|| 
A||---0-------2----------------------|| 
E||----------------------------------|| 

C Am F G 

e||----------------------------------------------------|| 
B||-------------5-----------------------5--8--5--------|| 
G||--------4--5---7--5--7--5-------4--5---------7--5---|| 
D||---5--7--------------------5--7---------------------|| 
A||----------------------------------------------------|| 
E||----------------------------------------------------|| 

C 
No me digas que  te puedo defraudar 
      Am 
no me digas que me encierro en mis adentros 
                     F 
y que atento a la verdad 
                 G                  F 
que con esas palabritas que hago camina-ar 
                   G                        C 
quiero ponerte un pisito y justo arriba de un bar
00:00 / 00:00
Other videos of this song
Repeat
Other videos of this song
Composed by Albertucho
Collaboration and Review:
  • Elton Bueno
276 views
    • ½ Tone
    • A
    • Bb
    • B
    • C
    • Db
    • D
    • Eb
    • E
    • F
    • F#
    • G
    • Ab
  • Add to list
    00:00 / 00:00
    OK