Cifra Club

Aprenda

Anunciação

Alceu Valença

Tab de bajo: Principal
(intro)

G--------------------------------
D--------------------------------
A----5-------5-------5-------5---  (2x)
E-x3---3--x3---3--x3---3--x3---3-

(parte 1)
G-----------------------------------------------------------------
D----------------------------------------------------------------- em alguns versos da música tem uma
A---2-----x7---x7---x7---x7----7-5-3~~~~0---x5---x5---x5---x5----- pausa antes de começar esse riff
E--3--3-5----5----5----5----5-------------3----3----3----3--------

(refrão)
G-----------------------------------------------------------------
D-----------------------------------------------------------------
A----------5-------5-------2-------2-------3-3-3-------5-------5--
E----3-3-3---3-3-3---0-0-0---0-0-0---1-1-1-------3-3-3---3-3-3----
Composição de Alceu Valença
Colaboración y revision:
  • Pedro Henrique
187 reproducciones

0 comentarios

Ver todos os comentários
00:00 / 00:00
outros vídeos desta música
repetir qualidade Automático
Outros vídeos desta música
00:00 / 00:00
Automático
OK