Cifra Club

Coração Bobo

Alceu Valença

Cifrado: Principal (guitarra y guitarra eléctrica)
Selo Cifra Club: esta cifra foi revisada para atender aos critérios oficiais da nossa Equipe de Qualidade.
tono: G
[Intro 1]

[Tab - Intro 1]

Parte 1 de 3
E|-0------2----2h3-3----------5-----5/7--7--|
B|---0------------------------0-----0-------|
G|-----0-----0------------------------------|
D|-2--------------------5---5----5----------|
A|------------------------------------------|
E|------------------------------------------|

Parte 2 de 3
E|-10----9-----7/12-12-----10-10----9-9-----|
B|------------------------------------------|
G|-----0----0-----------0--------0----------|
D|------------------------------------------|
A|------------------------------------------|
E|------------------------------------------|

Parte 3 de 3
E|----8-8-----7-7---------------------------|
B|------------------------------------------|
G|------------------------------------------|
D|-0-------0--------------------------------|
A|------------------------------------------|
E|------------------------------------------|

[Intro 2] Em  G  G7  G

[Tab - Intro 2]

Parte 1 de 3
   Em              G   
E|-0------2----2h3-3----------5-----5/7--7--|
B|---0------------------------0-----0-------|
G|-----0-----0------------------------------|
D|-2--------------------5---5----5----------|
A|------------------------------------------|
E|------------------------------------------|

Parte 2 de 3
                           G7
E|-10----9-----7/12-12-----10-10----9-9-----|
B|------------------------------------------|
G|-----0----0-----------0--------0----------|
D|------------------------------------------|
A|------------------------------------------|
E|------------------------------------------|

Parte 3 de 3 - variação
                G         H.N. .     .     
E|----8-8-----7-7----------12---------------|
B|-----------------------------12----12-----|
G|-----------------------------------12-----|
D|-0-------0--------------------------------|
A|------------------------------------------|
E|------------------------------------------|
                      
[Primeira Parte]

     Em  Em/F#    G
Meu coração tá batendo
   Em      Em/F#       G
Como quem diz não tem jeito
   Em     Em/F#      G
Zabumba, bumba esquisito
   A7    Ab7       G
Batendo dentro do peito
     Em  Em/F#    G
Teu coração tá batendo
   Em      Em/F#       G
Como quem diz não tem jeito
   Em  Em/F#     G
O coração dos aflitos
   A7   Ab7       G
Pipoca dentro do peito
   Em  Em/F#     G
O coração dos aflitos
   A7   Ab7       G
Pipoca dentro do peito

[Refrão]

         Bm7           Em
Coração bobo, coração bola
           Bm7               G
Coração balão, coração São João
   C         G
A gente se ilude dizendo
    A      C        G
Já não há mais coração
         Bm7                    Em
Coração bobo, coração, coração bola
           Bm7               G
Coração balão, coração São João
   C         G
A gente se ilude dizendo
    A      C        G
Já não há mais coração

( Bm7  Em  Bm7  G )
( C  G  A  C  G )
( Bm7  Em  Bm7  G )
( C  G  A  C  G )

         Bm7                    Em
Coração bobo, coração, coração bola
           Bm7               G
Coração balão, coração São João
   C         G
A gente se ilude dizendo
    A      C        G
Já não há mais coração

 Bm7   Em      Bm7       Em             
Bobo, bola, balão, São João
   C         G
A gente se ilude dizendo
    A      C        G
Já não há mais coração
   C         G
A gente se ilude dizendo
    A      C    Em
Já não há mais coração

[Solo]

[Tab - Solo - 2x]

Parte 1 de 3
E|-0------2----2h3-3----------5-----5/7--7--|
B|---0------------------------0-----0-------|
G|-----0-----0------------------------------|
D|-2--------------------5---5----5----------|
A|------------------------------------------|
E|------------------------------------------|

Parte 2 de 3
E|-10----9-----7/12-12-----10-10----9-9-----|
B|------------------------------------------|
G|-----0----0-----------0--------0----------|
D|------------------------------------------|
A|------------------------------------------|
E|------------------------------------------|

Parte 3 de 3 - variação
                           H.N..     .
E|----8-8-----7-7----------12---------------|
B|-----------------------------12----12-----|
G|-----------------------------------12-----|
D|-0-------0--------------------------------|
A|------------------------------------------|
E|------------------------------------------|

[Primeira Parte]

     Em  Em/F#    G
Meu coração tá batendo
   Em      Em/F#       G
Como quem diz não tem jeito
   Em     Em/F#      G
Zabumba, bumba esquisito
   A7    Ab7       G
Batendo dentro do peito
     Em  Em/F#    G
Teu coração tá batendo
   Em      Em/F#       G
Como quem diz não tem jeito
   Em  Em/F#     G
O coração dos aflitos
   A7   Ab7       G
Pipoca dentro do peito
   Em  Em/F#     G
O coração dos aflitos
   A7   Ab7       G
Pipoca dentro do peito

[Refrão]

         Bm7           Em
Coração bobo, coração bola
           Bm7               G
Coração balão, coração São João
   C         G
A gente se ilude dizendo
    A      C        G
Já não há mais coração

         Bm7                    Em
Coração bobo, coração, coração bola
           Bm7               G
Coração balão, coração São João
   C         G
A gente se ilude dizendo
    A      C        G
Já não há mais coração

 Bm7               
Bobo, bobo, bobo, bobo
 Em 
Bola, bola, bola, bola
 Bm7                   G
Bola, bola, bola de balão
   C         G
A gente se ilude dizendo
    A      C        G
Já não há mais coração

         Bm7           Em
Coração bobo, coração bola
           Bm7               G
Coração balão, coração São João
   C         G
A gente se ilude dizendo
    A      C        G
Já não há mais coração

        Bm7    Em      Bm7       Em             
Eita coração, bola, balão, São João
   C         G
A gente se ilude dizendo
    A      C        G
Já não há mais coração

         Bm7
Coração bobo, bobo, bobo, bobo
 Em 
Bola, bola, bola, bola
 Bm7                   G
Bola, bola, bola de balão
   C         G
A gente se ilude dizendo
    A      C        G
Já não há mais coração

 Bm7   Em      Bm7       Em             
Bobo, bola, balão, São João
   C         G
A gente se ilude dizendo
    A      C        G
Já não há mais coração
Otros videos de esta canción
    3.359 exhibiciones
    • Simplificar cifrado
      • ½ Tono
      • A
      • Bb
      • B
      • C
      • Db
      • D
      • Eb
      • E
      • F
      • F#
      • G
      • Ab
    • Agregar a la lista

    Afinação da cifra

    Afinador online

      Ops (: Contenido disponible solo en portugués.
      OK