Cifra Club

Hino do Elefante

Alceu Valença

Tablatura: Principal (guitarra)
tono: F
Introdução: F  F#m7(b5)  Gm  C7  F
            F  Am  Bb7  Bm7(5-)
            F  Dm  Gm  C7  F  C4(7/9)

Solo:

E|----------------------------------------------------|
B|----6-6-7-7-8-8--6p5-6p5-6p5-------5p3-5p3-5p3------|
G|-5-5----------------7---7---7-5-3-----5---5---5-3-2-|
D|----------------------------------------------------|
A|----------------------------------------------------|
E|----------------------------------------------------|

E|----------------------------|
B|---------6-5-4----------3-6-|
G|----2-3-5----------2-3-5----|
D|-3-5------------3-5---------|
A|----------------------------|
E|----------------------------|

E|---------------------------|
B|-3-5-6-5-3---3-5-3---------|
G|----------5-------5-3-2----|
D|-----------------------5-3-|
A|---------------------------|
E|---------------------------|

    F          Am   G#m   Gm
Ao som dos clarins de    momo
   C7     F        C4(7/9)   F
O povo aclama com todo    ardor
                               Bb
O elefante exaltando as suas tradições
G7           C7
E também seu esplendor

  F        Am  G#m  Gm
Olinda, este  meu  canto
    C7    F       C4(7/9)   F
Foi inspirado em teu    louvor
                                 Bb
Entre confetes, serpentinas, venho te oferecer
    C7              F  G  G#  A
Com alegria o meu amor

  Dm           Am
Olinda, quero cantar
   Bb  C          F
A ti,    esta canção
            Gm                     C7
Teus coqueirais, o teu sol, o teu mar
                    Am
Faz vibrar meu coração
              Dm                      Gm
De amor a sonhar, minha Olinda sem igual
         C7       F
Salve o teu carnaval
Colaboración y revision:
  • deivid dias
342 reproducciones
    • ½ Tono
    • A
    • Bb
    • B
    • C
    • Db
    • D
    • Eb
    • E
    • F
    • F#
    • G
    • Ab
  • Adicionar à lista

    0 comentarios

    Ver todos os comentários

    ¿Conseguiste tocar?

    1 Tocaram 2 Ainda não

    Grave um vídeo tocando Hino do Elefante e nos envie!

    00:00 / 00:00
    outros vídeos desta música
    repetir qualidade Automático
    Outros vídeos desta música
    00:00 / 00:00
    Automático
    OK