Cifra Club

Tropicana (Morena Tropicana)

Alceu Valença

Cifrado: Principal (guitarra y guitarra eléctrica)
tono: Bm
[Intro] Bm  F#m  Em  F#7
        Bm  F#m  Em  F#7

[Primeira Parte]

Bm                                  F#m
   Da manga rosa quero o gosto e o sumo
         Em        F#7  Bm
Melão maduro, sapoti, juá
                         F#m
Jaboticaba, teu olhar noturno
          Em        F#7  Bm
Beijo travoso de umbú cajá
        A     G          D
Pele macia é carne de caju
        A          G              D
Saliva doce, doce mel, mel de uruçú

[Pré-Refrão]

         C#m7(5-)    F#7         Bm
Linda morena, fruta de vez temporana
       Bm/F#     C#m7(5-) F#7          Bm
Caldo de cana caiana,    vem me desfrutar
         C#m7(5-)    F#7         Bm
Linda morena, fruta de vez temporana
       Bm/F#     C#m7(5-) F#7          Bm
Caldo de cana caiana,    vou te desfrutar

[Refrão]

             Bm                     F#m
Morena tropicana, eu quero o teu sabor
Em  F#7     Bm
oi, oi, oi, oi
             Bm                     F#m
Morena tropicana, eu quero o teu sabor
Em  F#7     Bm
oi, oi, oi, oi

[Primeira Parte]

Bm                                  F#m
   Da manga rosa quero o gosto e o sumo
         Em        F#7  Bm
Melão maduro, sapoti, juá
                         F#m
Jaboticaba, teu olhar noturno
          Em        F#7  Bm
Beijo travoso de umbú cajá
        A     G          D
Pele macia é carne de caju
        A          G              D
Saliva doce, doce mel, mel de uruçú

[Pré-Refrão]

         C#m7(5-)    F#7         Bm
Linda morena, fruta de vez temporana
       Bm/F#     C#m7(5-) F#7          Bm
Caldo de cana caiana,    vem me desfrutar
         C#m7(5-)    F#7         Bm
Linda morena, fruta de vez temporana
       Bm/F#     C#m7(5-) F#7          Bm
Caldo de cana caiana,    vou te desfrutar

[Refrão]

             Bm                     F#m
Morena tropicana, eu quero o teu sabor
Em  F#7     Bm
oi, oi, oi, oi
             Bm                     F#m
Morena tropicana, eu quero o teu sabor
Em  F#7     Bm
oi, oi, oi, oi

[Solo] Bm  F#m  Em  F#7
       Bm  F#m  Em  F#7
       A  G  D  A  G  D
       C#m7(5-)  F#7  Bm  Bm/F#
       C#m7(5-)  F#7  Bm  Bm/F#
       C#m7(5-)  F#7  Bm  Bm/F#
       C#m7(5-)  F#7  Bm

E|------------------------------------------|
B|------12-14-14b15~-14-14b15-14-12---------|
G|---11-----------------------------14b16-14|
D|12----------------------------------------|
A|------------------------------------------|
E|------------------------------------------|

E|------------------------------------------|
B|----15-17b19-b19-b19r-17-15---------------|
G|-14-------------------------16~-----------|
D|------------------------------------------|
A|------------------------------------------|
E|------------------------------------------|

E|-------------------------------------------|
B|----12-14-14b15--14-14b15-14-12------------|
G|-11-----------------------------14b16------|
D|-------------------------------------------|
A|-------------------------------------------|
E|-------------------------------------------|

E|-------------------------------------------|
B|-12----------------------------------------|
G|----14b16r14-------------------------------|
D|-------------------------------------------|
A|-------------------------------------------|
E|-------------------------------------------|

E|------------------------------------------|
B|----15-17b19--b19r-17-15------------------|
G|-14----------------------16~--------------|
D|------------------------------------------|
A|------------------------------------------|
E|------------------------------------------|

E|-------------------------------------------|
B|-------------14-17b19r17-17p15~------------|
G|-16-16-14-14-------------------------------|
D|-------------------------------------------|
A|-------------------------------------------|
E|-------------------------------------------|

E|-------------------------------------------|
B|-15-15-15-14--14---------------------------|
G|------------------14--16\--11~-------------|
D|-------------------------------------------|
A|-------------------------------------------|
E|-------------------------------------------|

E|-------------------------------------------|
B|-------------------------------------------|
G|-11b12-11b12-11-9b11r-9-7~-----------------|
D|-------------------------------------------|
A|-------------------------------------------|
E|-------------------------------------------|

E|----9-10~--10-10-9-12-9--------------------|
B|-12---------------------11-----------------|
G|---------------------------12-11-9-7-7~----|
D|-------------------------------------------|
A|-------------------------------------------|
E|-------------------------------------------|

E|-12b14-b14r13-b14r13-b14r13-b14r13-b14r13--|
B|-------------------------------------------|
G|-------------------------------------------|
D|-------------------------------------------|
A|-------------------------------------------|
E|-------------------------------------------|

E|-b14r13-b14r13-b14r13-b14r12-12-10---------|
B|-----------------------------------12~-----|
G|-------------------------------------------|
D|-------------------------------------------|
A|-------------------------------------------|
E|-------------------------------------------|

[Refrão]

             Bm                     F#m
Morena tropicana, eu quero o teu sabor
Em  F#7     Bm
oi, oi, oi, oi
             Bm                     F#m
Morena tropicana, eu quero o teu sabor
Em  F#7     Bm
oi, oi, oi, oi

[Primeira Parte]

Bm                                  F#m
   Da manga rosa quero o gosto e o sumo
         Em        F#7  Bm
Melão maduro, sapoti, juá
                         F#m
Jaboticaba, teu olhar noturno
          Em        F#7  Bm
Beijo travoso de umbú cajá
        A     G          D
Pele macia é carne de caju
        A          G              D
Saliva doce, doce mel, mel de uruçú

[Pré-Refrão]

         C#m7(5-)    F#7         Bm
Linda morena, fruta de vez temporana
       Bm/F#     C#m7(5-) F#7          Bm
Caldo de cana caiana,    vem me desfrutar
         C#m7(5-)    F#7         Bm
Linda morena, fruta de vez temporana
       Bm/F#     C#m7(5-) F#7          Bm
Caldo de cana caiana,    vou te desfrutar

[Refrão]

             Bm                     F#m
Morena tropicana, eu quero o teu sabor
Em  F#7     Bm
oi, oi, oi, oi
             Bm                     F#m
Morena tropicana, eu quero o teu sabor
Em  F#7     Bm
oi, oi, oi, oi
             Bm                     F#m
Morena tropicana, eu quero o teu sabor
Em  F#7     Bm
oi, oi, oi, oi
             Bm                     F#m
Morena tropicana, eu quero o teu sabor
Em  F#7     Bm
oi, oi, oi, oi
Composición de Alçeu Valença / Vicente Barreto
21.085 vistas
    • ½ Tono
    • Am
    • Bbm
    • Bm
    • Cm
    • C#m
    • Dm
    • Ebm
    • Em
    • Fm
    • F#m
    • Gm
    • G#m
  • Agregar a la lista

    0 comentarios

    Ver todos los comentarios

    ¿Lograste tocar?

    103 Tocaron 27 Aún no

    ¡Graba un video tocando Tropicana (Morena Tropicana) y envíanoslo!

    00:00 / 00:00
    Outros vídeos desta música
    Repetir Calidad Automático
    Outros vídeos desta música
    00:00 / 00:00
    Automático
    OK