Cifra Club

Tropicana (Morena Tropicana)

Alceu Valença

Tab de bajo: Principal
Da manga rosa quero o gosto e o sumo......

     (   Bm   F#m      Em        F#         Bm  )
G ----------------------------------------------------------------------------    
D ----------------------------------------------------------------------------
A ---2---2----------2----2----------------------------------------------------
E ----------2---5-------------2---5--2--------2--0--2---0--------2---0----2---


Pele macia é carne de caju...

     (   A G D  )
G ----------------------------------------------------------------------------    
D ----------------------------------------------------------------------------
A -----------------------------------5--5----3-----5--5----3------------------
E -----5--5------5----3--3----3-----------------------------------------------


Linda morena...

(C#m7(b5)         F#7         Bm  )

G ---------------------------------------------------------------------------    
D ---------------------------------------------------------------------------
A ---4----4----------2----2-------------4---4------------2----2-----------
E ------------2--2--------------2--2-------------2--2--------------2--2-----


             Bm                     F#m  :
Morena tropicana, eu quero o teu sabor  
Em  F#7     Bm                           
oi, oi, oi, oi,                 


G --------------------------------------------------------------------------    
D -------------------------------------------------------------------------
A ---2----2-------------2---2------------------------------------------------------2----
E --------------2---5-----------2----5----2------2---0---2---0--------2--0---2--------


É isso aí... agora é só ouvir a musica pra encaixar as partes que se repetem..
pauloandre01@uol.com.br - Banda Shade'Shivas
00:00 / 00:00
Otros videos de esta canción
Repetir
Otros videos de esta canción
Composición de Alçeu Valença / Vicente Barreto
Colaboración y revisión:
  • PAULO SANTOS
178 vistas

0 comentarios

Ver todos los comentarios

¿Lograste tocar?

1 Tocaron 2 Aún no

¡Graba un video tocando Tropicana (Morena Tropicana) y envíanoslo!

00:00 / 00:00
OK