Cifra Club

Punhal de Prata

Alceu Valença

Cifrado: Principal (guitarra y guitarra eléctrica)
tono: B
(intro) E5 F#5 E5 D5

B|--12-11-----12-11-------|
G|9-------9-9-------7/9-9-|

(E5 F#5 E5 D5)
Eu sempre andei descalço
No encalço dessa menina
E a sola dos meus passos
Tem a pele muito fina
Eu sempre olhei os olhos
Bem no fundo
Nas retinas
E a menina dos olhos
Me mata
Me alucina

(E5 F#5 E5 D5)

E|12-10-9-------------------------------|
B|--------12-15-14-14-12----------------|

E|12-10-9-------------------------------|
B|--------12-15-14----------------------|
G|-----------------13-------------------|

E|12-10-9-------------------------------|
B|--------12-15-14----------------------|
G|-----------------13-14-14-14-14-13-13-|

E|12-10-9----------12-14-12-10-10-9-10-7|
B|--------12-14-15----------------------|

E|12-10-9-------------------------------|
B|--------12-10-9-9/10-9--10-10-7-3/5---|

Eu sempre andei sozinho
A mão esquerda vazia
A mão direita fechada
Sem medo
Por garantia
De encontrar quem me ama
Nara que me odeia
Com esse punhal de prata
Brilhando na lua cheia

(E5 F#5 E5 D5)

E|12-12-12-12-10-12-10-9-7-7-9-7-5-4-4-5-4-----------|
B|-----------------------------------------5-5-------|

Eu sendo mouro sou um cigano
Eu rasgo o oceano
Eu quebro esse mar
Morena, vem...
00:00 / 00:00
Otros videos de esta canción
Repetir
Otros videos de esta canción
Composición de Alçeu Valença
Colaboración y revisión:
  • Gabriel Carvalho
  • Nicollas Serafim
85 vistas
    • ½ Tono
    • A
    • Bb
    • B
    • C
    • Db
    • D
    • Eb
    • E
    • F
    • F#
    • G
    • Ab
  • Agregar a la lista

    0 comentarios

    Ver todos los comentarios

    ¿Lograste tocar?

    0 Tocaron 0 Aún no

    ¡Graba un video tocando Punhal de Prata y envíanoslo!

    00:00 / 00:00
    OK