Cifra Club

Tesoura do Desejo

Alceu Valença

Cifrado: Principal (guitarra y guitarra eléctrica)
tono: E
[Intro] A  F7+  A  F7+
        A  F7+  A  F7+

[Solo]

E|-----10/12--10-9-----|-----------10/12-10-9------------|
B|--10-------------10--|--10-12-10------------10---------|
G|---------------------|---------------------------------|
D|---------------------|---------------------------------|
A|---------------------|---------------------------------|
E|---------------------|---------------------------------|

E|------------------------|------------------------------|
B|--------10-12-10-12/14--|----------10-12-10-10---------|
G|--14\10-----------------|---14\10----------------------|
D|------------------------|------------------------------|
A|------------------------|------------------------------|
E|------------------------|------------------------------|

E|------------------9h12p9--|----------------------------|
B|--------10-12-10----------|----------------------9/10--|
G|--14\10-------------------|---14\10--10-9--------------|
D|--------------------------|---------------12-11--------|
A|--------------------------|----------------------------|
E|--------------------------|----------------------------|

[Primeira Parte]

   F7+
Você atravessando aquela
                A
Rua vestida de negro
  F7+
E eu te esperando em frente
                    A
A um certo bar, Leblon
   F#m
Você se aproximando

E eu morrendo de medo
  B
Ali, bem mesmo em frente
                    A
A um certo bar, Leblon

( A  F7+  A  F7+ )
( A  F7+  A  F7+ )

[Segunda Parte]

       F7+                                   A
Quando eu atravessava aquela rua, morria de medo
    F7+                                        A
De ver o teu sorriso e começar um velho sonho bom
     F#m
E o sonho fatalmente viraria pesadelo
  B                                          A
Ali, bem mesmo em frente a um certo bar, Leblon

( A  F7+  A  F7+ )
( A  F7+  A  F7+ )

[Refrão]

          F7+            A
Vamos entrar, não tenho tempo
             F7+                A
O que é que houve? O que é que há?
             F#m
O que é que houve, meu amor

Você cortou os seus cabelos?
         B
Foi a tesoura do desejo
                   A
Desejo mesmo de mudar

( A  F7+  A  F7+ )

[Solo]

E|-------------------------|------------------------|
B|-------------------------|-----8b10r8-6-----------|
G|---------9-7-6---6/7\6---|--------------9---------|
D|--7-7-7--------9---------|--7---------------------|
A|-------------------------|------------------------|
E|-------------------------|------------------------|

[Refrão]

          F7+            A
Vamos entrar, não tenho tempo
             F7+               A
O que é que houve? O que é que há?
             F#m
O que é que houve, meu amor

Você cortou os seus cabelos?
         B
Foi a tesoura do desejo
                   A
Desejo mesmo de mudar

E|-------------------------|------------------------|
B|-------------------------|-----8b10r8-6-----------|
G|---------9-7-6---6/7\6---|--------------9---------|
D|--7-7-7--------9---------|--7---------------------|
A|-------------------------|------------------------|
E|-------------------------|------------------------|

[Final] A  F7+  A  F7+
        A  F7+  A  F7+
00:00 / 00:00
Otros videos de esta canción
Repetir
Otros videos de esta canción
Composición de Alçeu Valença
Colaboración y revisión:
676 vistas
    • ½ Tono
    • A
    • Bb
    • B
    • C
    • Db
    • D
    • Eb
    • E
    • F
    • F#
    • G
    • Ab
  • Agregar a la lista

    0 comentarios

    Ver todos los comentarios

    ¿Lograste tocar?

    7 Tocaron 1 Aún no

    ¡Graba un video tocando Tesoura do Desejo y envíanoslo!

    00:00 / 00:00
    OK