Cifra Club

Você Me Vira a Cabeça

Alcione

Cifrado: Principal (guitarra y guitarra eléctrica)
Selo Cifra Club: esta cifra foi revisada para atender aos critérios oficiais da nossa Equipe de Qualidade.
tono: F#m
[Intro] F#m7  E  D
        F#m7  E  D  C#7

[Tab - Intro] 

Parte 1 de 4

                F#m7           E   D
E|-----5-4-2p0--2-----2-x--2---0------------|
B|-1/2----------2---2---x--2---0---3--------|
G|--------------2-2-----x--2---1---2--------|
D|----------------------x----------0--------|
A|----------------------x-------------------|
E|--------------2-------x--2---0------------|

Parte 2 de 4
 
E|----------------------x-------------------|
B|-0h2p0-2------------2-x-------------------|
G|---------4p2------2---x--2--2-------------|
D|--------------2h4-----x-----4-------------|
A|----------------------x-------------------|
E|--------------2-------x-----2-------------|

Parte 3 de 4

                F#m7           E   D
E|-----5-4-2p0--2-----2-x--2---0------------|
B|-1/2----------2---2---x--2---0---3--------|
G|--------------2-2-----x--2---1---2--------|
D|----------------------x----------0--------|
A|----------------------x-------------------|
E|--------------2-------x--2---0------------|

Parte 4 de 4

                C#7
E|------------------------------------------|
B|-0h2p0-2------2---------------------------|
G|---------4p2--4---------------------------|
D|--------------3---------------------------|
A|--------------4---------------------------|
E|------------------------------------------|

Violão Dobra

E|------9-7---------------------------------|
B|----------10p9--10------------------------|
G|-5/6--------------------------------------|
D|------------------------------------------|
A|------------------------------------------|
E|------------------------------------------|

[Primeira Parte]

Parte 1 de 5

   F#m7         C#7(13-)
E|--------------5--5-----5-------------------|
B|-2--2-----2---6--6-----6-------------------|
G|-2--2-----2---4----4---4-------------------|
D|-2----2---2--------------------------------|
A|--------------4------4---------------------|
E|-2------2----------------------------------|

Parte 2 de 5

   F#m7         F#m7M
E|-------------------------------------------|
B|-2--2-----2---2--2-----2-------------------|
G|-2--2-----2---2--2-----2-------------------|
D|-2----2---2---3----3---3-------------------|
A|-------------------------------------------|
E|-2------2-----2------2---------------------|

Parte 3 de 5

   Bm7          E7
E|-------------------------------------------|
B|-3--3-----3---3--3-----3-------------------|
G|-2--2-----2---1--1-----1-------------------|
D|-4----4---4---0----0---0-------------------|
A|-2-------------------2---------------------|
E|--------2-----0----------------------------|

Parte 4 de 5

   A7M          D7M
E|--------------2--2-----2-------------------|
B|-2--2-----2---2--2-----2-------------------|
G|-1--1-----1---2----2---2-------------------|
D|-2----2---2---0----------------------------|
A|-0-------------------0---------------------|
E|--------0----------------------------------|

Parte 5 de 5

   G#m7(5-)     C#7
E|-------------------------------------------|
B|-3--3-----3---2--2-----2-------------------|
G|-4--4-----4---4--4-----4-------------------|
D|-4----4---4---3----3---3-------------------|
A|--------------4----------------------------|
E|-4------4------------4---------------------|

F#m7                   C#7(13-)  
     Você me vira a cabeça
F#m7             F#m7M
     Me tira do sério
Bm7
    Destrói os planos
           E7          
Que um dia eu fiz pra mim
A7M
    Me faz pensar
                   D7M
Por que que a vida é assim
G#m7(5-)            
         Eu sempre vou 
   C#7
E volto pros seus braços

[Segunda Parte]

Parte 1 de 6

   F#m7         C#7(13-)
E|--------------5--5-------------------------|
B|-2--2-----2---6--6---------2---------------|
G|-2--2-----2---4----4---2h4---4p2-----------|
D|-2----2---2--------------------------------|
A|--------------4----------------------------|
E|-2------2----------------------------------|

Parte 2 de 6

   F#m7           F#m7M
E|-------------------------------------------|
B|-------2----2---2--2-----2-----------------|
G|-------2----2---2--2-----2-----------------|
D|-4p2h4-4----2---3----3---3-----------------|
A|-------------------------------------------|
E|-2--------2-----2------2-------------------|

Parte 3 de 6 

   Bm7          E7(5-)   E7
E|--------------6--6-----7-------------------|
B|-3--3-----3--------------------------------|
G|-2--2-----2---7--7-----7-------------------|
D|-4----4---4---6----6---6-------------------|
A|-2-----------------------------------------|
E|--------2-----0------0---------------------|

Parte 4 de 6 

   A7M          D7M
E|-4--4-----4---2--2-----2-------------------|
B|-5--5-----5---2--2-----2-------------------|
G|-6----6---6---2----2---2-------------------|
D|--------------0----------------------------|
A|-0-------------------0---------------------|
E|--------0----------------------------------|

Parte 5 de 6

   G#m7(5-)     C#7
E|-------------------------------------------|
B|-3--3-----3---2--2-----2-------------------|
G|-4--4-----4---4--4-----4-------------------|
D|-4----4---4---3----3---3-------------------|
A|--------------4----------------------------|
E|-4------4------------4---------------------|

Parte 6 de 6

   F#m7         
E|-------------------------------------------|
B|-2--2-----2--------------------------------|
G|-2--2-----2--------------------------------|
D|-2----2---2--------------------------------|
A|-------------------------------------------|
E|-2------2----------------------------------|

F#m7                    C#7(13-)
     Você não me quer de verdade
F#m7              F#m7M
     No fundo eu sou     tua vaidade
Bm7                          E7(5-) E7 
   Eu vivo seguindo os teus passos
A7M                  D7M
   Eu sempre estou presa em teus laços
G#m7(5-)               C#7        F#m7
         É só você chamar, que eu vou

[Pré-Refrão]

Parte 1 de 3

   D7M        A/C# Bm7
E|-2--2----x--------------------------------|
B|-2--2----x--2----3-3-----3----------------|
G|-2----2--x--2----2-2-----2----------------|
D|-0-------x--2----4---4---4----------------|
A|---------x--4----2------------------------|
E|---------x-------------2------------------|

Parte 2 de 3

   C#7
E|------------------------------------------|
B|-2--2-----2-------------------------------|
G|-4--4-----4-------------------------------|
D|-3----3---3-------------------------------|
A|-4----------------------------------------|
E|--------4---------------------------------|

Parte 3 de 3

   D7M          C#7
E|-2--2-----2----------------9---9---9---9--|
B|-2--2-----2---2--2-----2---9---9---9---9--|
G|-2----2-------4--4-----4---10--10--10--10-|
D|-0------------3----3---3------------------|
A|--------0-----4---------------------------|
E|---------------------4-----9---9---9---9--|


      D7M            A/C#  Bm7
Por quê você não vai em___bora de vez?
      D7M            A/C#
Por quê não me liberta    
 Bm7
Dessa paixão?
      C#7
Por quê?
      D7M         
Por quê você não diz 
  A/C#  Bm7
Que    não me quer mais?

      D7M                  C#7
Por quê não deixa livre o meu coração?

[Refrão]

Parte 1 de 5

    F#m7
E|------------------------------------------|
B|--2--2----2---2--2-----2------------------|
G|--2--2----2---2--2-----2------------------|
D|--2--2----2---2----2---2------------------|
A|------------------------------------------|
E|--2----2------2------2--------------------|

Parte 2 de 5

   Bm7   
E|------------------------------------------|
B|-3---3----3--3--3-----3-------------------|
G|-2---2----2--2--2-----2-------------------|
D|-4---4----4--4----4-----------------------|
A|-2-----------2----------------------------|
E|-------2------------2---------------------|

Parte 3 de 5

   G#m7(5-)    C#7
E|------------------------------------------|
B|-3---3----3--2--2-----2-------------------|
G|-4---4----4--4--4-----4-------------------|
D|-4---4----4--3----3---3-------------------|
A|-------------4----------------------------|
E|-4-----4------------4---------------------|

Parte 4 de 5

   F#m7         C#7
E|--------------9---9---9---9---------------|
B|-2--2-----2---9---9---9---9---------------|
G|-2--2-----2---10--10--10--10--------------|
D|-2----2---2-------------------------------|
A|------------------------------------------|
E|-2------2-----9---9---9---9---------------|

Parte 5 de 5

   G#m7(5-)    C#7          F#m7
E|------------------------------------------|
B|-3---3----3--2--2-----2---2---------------|
G|-4---4----4--4--4-----4---2---------------|
D|-4---4----4--3----3---3---2---------------|
A|-------------4----------------------------|
E|-4-----4------------4-----2---------------|

                    F#m7
Mas tem que me prender

Tem que seduzir
              Bm7
Só pra me deixar louca por você
               G#m7(5-)
Só pra ter alguém
                    C#7
Que vive sempre ao seu dispor
                    F#m7  C#7
Por um segundo de amor

                    F#m7
Mas tem que me prender

Tem que seduzir
              Bm7
Só pra me deixar louca por você
               G#m7(5-)
Só pra ter alguém
                    C#7
Que vive sempre ao seu dispor
                    F#m7
Por um segundo de amor

( F#m7  E  D7M )
( F#m7  E  D7M  C#7 )

Parte 1 de 4
                F#m7           E   D
E|-----5-4-2p0--2-----2-x--2---0------------|
B|-1/2----------2---2---x--2---0---3--------|
G|--------------2-2-----x--2---1---2--------|
D|----------------------x----------0--------|
A|----------------------x-------------------|
E|--------------2-------x--2---0------------|

Parte 2 de 4
   
E|----------------------x-------------------|
B|-0h2p0-2------------2-x-------------------|
G|---------4p2------2---x--2--2-------------|
D|--------------2h4-----x-----4-------------|
A|----------------------x-------------------|
E|--------------2-------x-----2-------------|

Parte 3 de 4
                F#m7           E   D
E|-----5-4-2p0--2-----2-x--2---0------------|
B|-1/2----------2---2---x--2---0---3--------|
G|--------------2-2-----x--2---1---2--------|
D|----------------------x----------0--------|
A|----------------------x-------------------|
E|--------------2-------x--2---0------------|

Violão Dobra

E|------9-7---------------------------------|
B|----------10p9--10------------------------|
G|-5/6--------------------------------------|
D|------------------------------------------|
A|------------------------------------------|
E|------------------------------------------|

Parte 4 de 4
                C#7
E|------------------------------------------|
B|-0h2p0-2------2---------------------------|
G|---------4p2--4---------------------------|
D|--------------3---------------------------|
A|--------------4---------------------------|
E|------------------------------------------|

[Segunda Parte]

Parte 1 de 6

   F#m7         C#7(13-)
E|--------------5--5-------------------------|
B|-2--2-----2---6--6---------2---------------|
G|-2--2-----2---4----4---2h4---4p2-----------|
D|-2----2---2--------------------------------|
A|--------------4----------------------------|
E|-2------2----------------------------------|

Parte 2 de 6

   F#m7           F#m7M
E|-------------------------------------------|
B|-------2----2---2--2-----2-----------------|
G|-------2----2---2--2-----2-----------------|
D|-4p2h4-4----2---3----3---3-----------------|
A|-------------------------------------------|
E|-2--------2-----2------2-------------------|

Parte 3 de 6 

   Bm7          E7(5-)   E7
E|--------------6--6-----7-------------------|
B|-3--3-----3--------------------------------|
G|-2--2-----2---7--7-----7-------------------|
D|-4----4---4---6----6---6-------------------|
A|-2-----------------------------------------|
E|--------2-----0------0---------------------|

Parte 4 de 6 

   A7M          D7M
E|-4--4-----4---2--2-----2-------------------|
B|-5--5-----5---2--2-----2-------------------|
G|-6----6---6---2----2---2-------------------|
D|--------------0----------------------------|
A|-0-------------------0---------------------|
E|--------0----------------------------------|

Parte 5 de 6

   G#m7(5-)     C#7
E|-------------------------------------------|
B|-3--3-----3---2--2-----2-------------------|
G|-4--4-----4---4--4-----4-------------------|
D|-4----4---4---3----3---3-------------------|
A|--------------4----------------------------|
E|-4------4------------4---------------------|

Parte 6 de 6

   F#m7         
E|-------------------------------------------|
B|-2--2-----2--------------------------------|
G|-2--2-----2--------------------------------|
D|-2----2---2--------------------------------|
A|-------------------------------------------|
E|-2------2----------------------------------|

F#m7                      C#7(13-)  
     Você não me quer de verdade
F#m7                 F#m7M
     No fundo, eu sou      tua vaidade
Bm7                          E7(5-) E7 
   Eu vivo seguindo os teus passos
A7M                   D7M
    Eu sempre estou presa em teus laços
G#m7(5-)               C#7     F#m7
         É só você chamar, que eu vou

[Pré-Refrão]

Parte 1 de 3

   D7M        A/C# Bm7
E|-2--2----x--------------------------------|
B|-2--2----x--2----3-3-----3----------------|
G|-2----2--x--2----2-2-----2----------------|
D|-0-------x--2----4---4---4----------------|
A|---------x--4----2------------------------|
E|---------x-------------2------------------|

Parte 2 de 3

   C#7
E|------------------------------------------|
B|-2--2-----2-------------------------------|
G|-4--4-----4-------------------------------|
D|-3----3---3-------------------------------|
A|-4----------------------------------------|
E|--------4---------------------------------|

Parte 3 de 3

   D7M          C#7
E|-2--2-----2----------------9---9---9---9--|
B|-2--2-----2---2--2-----2---9---9---9---9--|
G|-2----2-------4--4-----4---10--10--10--10-|
D|-0------------3----3---3------------------|
A|--------0-----4---------------------------|
E|---------------------4-----9---9---9---9--|

      D7M            A/C#  Bm7
Por quê você não vai em___bora de vez?
      D7M            A/C#
Por quê não me liberta    
 Bm7
Dessa paixão?
      C#7
Por quê?
      D7M      
Por quê você não diz 
  A/C#  Bm7
Que    não me quer mais?
      D7M                  C#7
Por quê não deixa livre o meu coração?

[Refrão]

Parte 1 de 5

    F#m7
E|------------------------------------------|
B|--2--2----2---2--2-----2------------------|
G|--2--2----2---2--2-----2------------------|
D|--2--2----2---2----2---2------------------|
A|------------------------------------------|
E|--2----2------2------2--------------------|

Parte 2 de 5

   Bm7   
E|------------------------------------------|
B|-3---3----3--3--3-----3-------------------|
G|-2---2----2--2--2-----2-------------------|
D|-4---4----4--4----4-----------------------|
A|-2-----------2----------------------------|
E|-------2------------2---------------------|

Parte 3 de 5

   G#m7(5-)    C#7
E|------------------------------------------|
B|-3---3----3--2--2-----2-------------------|
G|-4---4----4--4--4-----4-------------------|
D|-4---4----4--3----3---3-------------------|
A|-------------4----------------------------|
E|-4-----4------------4---------------------|

Parte 4 de 5

   F#m7         C#7
E|--------------9---9---9---9---------------|
B|-2--2-----2---9---9---9---9---------------|
G|-2--2-----2---10--10--10--10--------------|
D|-2----2---2-------------------------------|
A|------------------------------------------|
E|-2------2-----9---9---9---9---------------|

Parte 5 de 5

   G#m7(5-)    C#7          F#m7
E|------------------------------------------|
B|-3---3----3--2--2-----2---2---------------|
G|-4---4----4--4--4-----4---2---------------|
D|-4---4----4--3----3---3---2---------------|
A|-------------4----------------------------|
E|-4-----4------------4-----2---------------|
                    F#m7
Mas tem que me prender

Tem que seduzir
              Bm7
Só pra me deixar louca por você
               G#m7(5-)
Só pra ter alguém
                    C#7
Que vive sempre ao seu dispor
                    F#m7  C#7
Por um segundo de amor

                    F#m7
Mas tem que me prender

Tem que seduzir
              Bm7
Só pra me deixar louca por você
               G#m7(5-)
Só pra ter alguém
                    C#7
Que vive sempre ao seu dispor
                    F#m7  C#7
Por um segundo de amor

                    F#m7
Mas tem que me prender

Tem que seduzir
              Bm7
Só pra me deixar louca por você
               G#m7(5-)
Só pra ter alguém
                    C#7
Que vive sempre ao seu dispor
                    F#m7  C#7
Por um segundo de amor

                    F#m7
Mas tem que me prender

Tem que seduzir
              Bm7
Só pra me deixar louca por você
               G#m7(5-)
Só pra ter alguém
                    C#7
Que vive sempre ao seu dispor
                    F#m7  
Por um segundo de amor

[Final] D7M  C#m7  Bm7  F#m7

Parte 1 de 4

                 D7M     C#m7 Bm7
E|-----5-4-2p0---2--2-----------------------|
B|-1/2-----------2--2----5----3-------------|
G|---------------2--2----4----2-------------|
D|---------------0--0----6----4-------------|
A|-----------------------4----2-------------|
E|------------------------------------------|

Violão Dobra

E|------9-7---------------------------------|
B|----------10p9--10------------------------|
G|-5/6--------------------------------------|
D|------------------------------------------|
A|------------------------------------------|
E|------------------------------------------|

Parte 2 de 4

                  F#m7
E|------------------------------------------|
B|-0h2p0-2--------2-------------------------|
G|---------4p2----2-------------------------|
D|----------------2-------------------------|
A|------------------------------------------|
E|----------------2-------------------------|
Otros videos de esta canción
793.971 exhibiciones
  • Simplificar cifrado
    • ½ Tono
    • Am
    • Bbm
    • Bm
    • Cm
    • C#m
    • Dm
    • Ebm
    • Em
    • Fm
    • F#m
    • Gm
    • G#m
  • Agregar a la lista

Afinación de cifrado

Afinador online

    Capítulos
    • Apresentação
    • Tocando a Música
    • Acordes da Intro
    • Ensinando a Tocar a Intro
    • Acordes da Primeira Parte
    • Ensinando a Tocar a Primeira Parte
    • Acordes da Segunda Parte
    • Ensinando a Tocar a Segunda Parte
    • Acorde Pré-refrão
    • Ensinando a Tocar o Pré-refrão
    • Ensinando a Tocar o Refrão
    • Ensinando a Tocar o Final
    • Encerramento
    OK