Cifra Club

Filho Amado

Alda Célia

Tablatura: Principal
reproducciones 96
Tono: E
Intro: E B C#m A  2X

Guitarra: 

E|------------------------------------------------
A|------------------------------------------------
D|------------------------------------------------ 
G|-11-11-11-9--------------------------------
B|------------------12-12-12-12-9-9-9-9-9-9----
E|------------------------------------------------

E|-------------------------------------------------
A|-------------------------------------------------
D|------------------------------------------------- 
G|-11-11-11-9---------------------------------
B|-------------------12-12-12-12-9-9-9-9-9-9--
E|-------------------------------------------------

E|----------------------------------------------------------------
A|----------------------------------------------------------------
D|------------------------------------------------- --------------
G|-11-11-11-9-------------------------------------------------
B|-------------------12-12-12-12-9-9-9-9-9-9-10-10-10----
E|-----------------------------------------------------------------

(Repete tudo acima 2x)


         E
Meu filho eu te abençôo 
       B
Te libero para prosperar 
       C#m                               A
O Espírito de Deus está sobre ti
           C#m
Quero ungir a tua mente 
            B
Teus ouvidos e o teu coração 
         A                                                 B
Pra que você se lembre bem quem você é
        C#m
O espírito de sabedoria 
        B
O espírito de inteligência  
         A                                    B
O espírito de conselho e fortaleza
        C#m
O espírito de conhecimento 
        B
O espírito de temor  
       A                                     B4    B
O Espírito do Senhor está sobre ti

refrão :
                    E             B
Meu filho amado, abençoado  
                 C#m
O Espírito Santo habita em ti   
                  A                    B
O Espírito Santo habita em ti
               E                  B
Você é ungido  e escolhido 
              C#m7                           A                B
Como profeta das nações Inspirador de multidões
   
            A/C#   B/D#               E
Tu serás.....................filho meu

Intro:  E B C#m A

Guitarra: 

E|------------------------------------------------
A|------------------------------------------------
D|------------------------------------------------ 
G|-11-11-11-9-----------------------------------
B|------------------12-12-12-12-9-9-9-9-9-9---
E|-------------------------------------------------

E|-------------------------------------------------
A|-------------------------------------------------
D|------------------------------------------------- 
G|-11-11-11-9-----------------------------------
B|-------------------12-12-12-12-9-9-9-9-9-9---
E|-------------------------------------------------

E|-------------------------------------------------
A|-------------------------------------------------
D|------------------------------------------------- 
G|-11-11-11-9--------------------------------------
B|-------------------12-12-12-12-9-9-9-9-9-9-10-10-10-----
E|-------------------------------------------------

         E
Meu filho eu te abençôo 
       B
Te libero para prosperar  
        C#m                              A
O Espírito de Deus está sobre ti
           C#m
Quero ungir a tua mente 
             B
Teus ouvidos e o teu coração 
          A                                               B4  B
Pra que você se lembre bem quem você é
                  E               B
Meu filho amado, abençoado  
                 C#m
O Espírito Santo habita em ti   
                   A                   B
O Espírito Santo habita em ti
               E               B
Você é ungido e escolhido 
              C#m7                           A                  B
Como profeta das nações Inspirador de multidões   
            A/C#  B/D#                 E B C#m B A
Tu serás...................filho meeeeeeeeeeeu

       E                                 B
Eu unjo os teus lábios pra profetizar  
      C#m                             B
Eu unjo as tuas mãos para prosperar
       A                                  B
Eu unjo os teus joelhos para adorar 
      C#m                                  A        B
Eu unjo os teus pés para conquistar


                 E                B
Sou filho amado, abençoado  
                  C#m
O Espírito Santo habita em mim  
                   A                          B
O Espírito Santo habita em mim
                E              B
Eu sou ungido e escolhido  
                   C#m                             A                   B
Como um profeta das nações  Inspirador de multidões
                 A/C#    B/D#                  E  B
Sou de Deus.....................Sou de Deus
                   E             B
Sou filho amado, abençoado  
                  C#m
O Espírito Santo habita em mim  
                   A                      B
O Espírito Santo habita em mim
               E               B
Eu sou ungido e escolhido  
                   C#m                             A                  B
Como um profeta das nações  Inspirador de multidões
                 A/C#     B/D#                  (E B C#m A) 5X
Sou de Deus.....................Sou de Deus
Acordes para:
    Colaboración y revision:
    • Otávio Santos
    • Aline Miyamoto

    0 comentarios

      mostrar más comentarios

      ¿Conseguiste tocar?

      1tocaron0aún no

      ¡Graba un vídeo tocando Filho Amado y envianoslo!

      00:00 / 00:00
      outros vídeos desta música
      repetirqualidadeautomática
      Outro vídeos desta música
        00:00 / 00:00
        automática
        OK