Cifra Club

A Most Profound Quiet

Alesana

Tablatura: Principal (guitarra)
tono: C
(intro - guitar 1 - 2x)
E |---------------------------------------------------------------------------|
B |---------------------------------------------------------------------------|
G |---------------------------------------------------------------------------|
D |-----77777777--55555555-----33333333--55555555-----------------------------|
A |-----77777777--55555555-----33333333--55555555-----------------------------|
D |-----77777777--55555555-----33333333--55555555-----------------------------|
(guitar 2 - 2x)
E |---------------------------------------------------------------------------|
B |---------------------------------------------------------------------------|
G |----------9---7-----------------9---7--------------------------------------|
D |------7777-777-777-9-7-10---7777-777-7777-5-7------------------------------|
A |---------------------------------------------------------------------------|
D |-------------------------------------------------/pickslide\---------------|
        **** *** ***   *      **** *** ****
(verse guitar 1)
E |---------------------------------------------------------------------------|
B |---------------------------------------------------------------------------|
G |---------------------------------------------------------------------------|
D |-----77777\--2-3-5--77777\--2-3-5--33333333-222222222----------------------|
A |-----77777\--2-3-5--77777\--2-3-5--33333333-222222222----------------------|
D |-----77777\--2-3-5--77777\--2-3-5--33333333-222222222----------------------|

E |---------------------------------------------------------------------------|
B |---------------------------------------------------------------------------|
G |---------------------------------------------------------------------------|
D |-----77777\--2-3-5--77777\--2-3-5--33333333-222222222--777777777777\-------|
A |-----77777\--2-3-5--77777\--2-3-5--33333333-222222222--777777777777\-------|
D |-----77777\--2-3-5--77777\--2-3-5--33333333-222222222--777777777777\-------|

(chorus - guitar 1 - 2x)
E |---------------------------------------------------------------------------|
B |---------------------------------------------------------------------------|
G |---------------------------------------------------------------------------|
D |-----00000000000---77777777--888888888--10101010101010---------------------|
A |-----00000000000---77777777--888888888--10101010101010---------------------|
D |-----00000000000---77777777--888888888--10101010101010---------------------|

(verse 2 - guitar 1 - 2x)
E |----------------------------------------------------------------------------|
B |----------------------------------------------------------------------------|
G |----------------------------------------------------------------------------|
D |---1/3-77-2-3-5---1/3-77-5555-8888---------------------------------------------|
A |---1/3-77-2-3-5---1/3-77-5555-8888---------------------------------------------|
D |---1/3-77-2-3-5---1/3-77-5555-8888---------------------------------------------|

     (guitar 1)                            (guitar 2)
E |---------------------------------|------------------------------------------|
B |---------------------------------|-------------6-8--------------------------|
G |---------------------------------|-----77-1010------------------------------|
D |--0-0-0-0-----8888-10101010------|------------------------------------------|
A |--0-0-0-0-----8888-10101010------|------------------------------------------|
D |--0-0-0-0-----8888-10101010------|------------------------------------------|
    * * * *

(repeat chorus)

(bridge) (repeat many times)
E |---------------------------------------------------------------------------|
B |---------------------------------------------------------------------------|
G |----777-99-1010--77-99-77--777-99-1010--777-99-66--------------------------|
D |---------------------------------------------------------------------------|
A |---------------------------------------------------------------------------|
D |---------------------------------------------------------------------------|

(repeat chorus)

(outro)
E |----------------------------------------------------------------------------|
B |----------------------------------------------------------------------------|
G |----------------------------------------------------------------------------|
D |---1/3-77-2-3-5---1/3-77-5555-8888---------------------------------------------|
A |---1/3-77-2-3-5---1/3-77-5555-8888---------------------------------------------|
D |---1/3-77-2-3-5---1/3-77-5555-8888---------------------------------------------|
Composição de Adam Ferguson / Shawn Milke
Colaboración y revision:
  • James Johny
55 reproducciones
    • ½ Tono
    • A
    • Bb
    • B
    • C
    • Db
    • D
    • Eb
    • E
    • F
    • F#
    • G
    • Ab
  • Adicionar à lista

    0 comentarios

    Ver todos os comentários

    ¿Conseguiste tocar?

    0 Tocaram 0 Ainda não

    Grave um vídeo tocando A Most Profound Quiet e nos envie!

    00:00 / 00:00
    outros vídeos desta música
    repetir qualidade Automático
    Outros vídeos desta música
    00:00 / 00:00
    Automático
    OK