Cifra Club

Ambrosia

Alesana

Tablatura: Principal (guitarra)
tono: G
Tuning: Drop D

Intro.
1.
|------|
|------|
|-7~---|
|------|

"A touch of poison.. Seals my fate..!"
2.
|--------------------------------------9~--|
|-------------------------------7-9-10-----|
|--5-3-------------------------------------|
|------5-000000000000000000000x------------|

"Once king of roses.."
3.
|-------------------------------------------|
|-------------------------------------------|
|-------------------------------------------|
|-555555555-333333333-111111111-333333333---|

"The gods themselves envy my hand.."
4.
|-------------------------------------------|
|---------------------333333333-555555555---|
|-------------------------------------------|
|-555555555-333333333--------------------5x-|

Pre-Chorus
5.
|-------------------------------------------|
|-------------------------------------------|
|------------------------------12~----------|
|-------------------------------------------|

Chorus
"I curse the day my dream became my decent.."
6.
|---------------------------------------------|
|---------------------------------------------|
|---------------------------------------------|
|--555555555555555-57875-33333333333333/151515|

7.
|-------------------------------------------|
|-------------------------------------------|
|-----------------777x------777x-777x-------|
|-111111111111111------000x-----------------|

Verse
"In my perfection..."
8.
|-------------------------------------------|
|-------------------------------------------|
|-------------------------------------------|
|-555555555-333333333-111111111-333333333---|

"Yet eyes stil glint.."
9.
|-------------------------------------------|
|---------------------333333333-555555555---|
|-------------------------------------------|
|-555555555-333333333--------------------5x-|

Pre-Chorus
10.
|-------------------------------------------|
|-------------------------------------------|
|------------------------------12~----------|
|-------------------------------------------|

Chorus
"I curse the day my dream became my decent.."
11.
|---------------------------------------------|
|---------------------------------------------|
|---------------------------------------------|
|--555555555555555-57875-33333333333333/151515|

12.
|-------------------------------------------|
|-------------------------------------------|
|-----------------777x------777x-777x-------|
|-111111111111111------000x-----------------|

Outro.
"HAVE I NOT..." x4
13.
|----------------------|
|----------------------|
|-3-3-3-3-2-2-2-2x-----|
|------------------0~--|

Bass Solo
14.
|-------------------------------------------|
|------------------------------------9~-----|
|------75----575----------75-----575--------|
|-7-0----5--5---55-33-0-0---5---5-----------|

"Oh yeah!.. Ive got her.. Hook, line and sinker.."
15.
|---------------------------------------|
|---------------------------------------|
|----7-5-------------7-5----------------|-- For a bunch of times
|--00----5x--3-5-3-00----5x--3-5-3------|    

"Now she's good as gold..."
16.
|--------9~--|
|-7-9-10-----|
|------------|
|------------|
Composição de Alesana / Dennis Lee / Shawn Milke
Colaboración y revision:
  • Digo
406 reproducciones
    • ½ Tono
    • A
    • Bb
    • B
    • C
    • Db
    • D
    • Eb
    • E
    • F
    • F#
    • G
    • Ab
  • Adicionar à lista

    0 comentarios

    Ver todos os comentários

    ¿Conseguiste tocar?

    0 Tocaram 0 Ainda não

    Grave um vídeo tocando Ambrosia e nos envie!

    00:00 / 00:00
    outros vídeos desta música
    repetir qualidade Automático
    Outros vídeos desta música
    00:00 / 00:00
    Automático
    OK