Cifra Club

Beautiful In Blue Intro

Alesana

Tablatura: Principal (guitarra)
Já pensou em usar uma coleção de roupas do Cifra Club? Responda as perguntas abaixo e nos ajude nessa missão! →
tono: D
. palm mute

e -------------------------------------------------------------------|
B -------------------------------------------------------------------|
G -------------------------------------------------------------------|
D ------------------------------------------------------7------------|
A -999-99999999-x2--777--77777777-x2--555--55555555-x2--7------------|
E -777-77777777-----555--55555555-----333--33333333-----5------------|
       ........          ........          ........

e -------------------------------------------------------------------|
B -------------------------------------------------------------------|
G -------------------------------------------------------------------|
D -------------------------------------------------------------------|
A --9-x4---------7-x4------5-x4---------7-x4-------------------------|
E --7------------5---------3------------5----------------------------|

sorry i only know the intro
email is *
later
119 reproducciones
    • ½ Tono
    • A
    • Bb
    • B
    • C
    • Db
    • D
    • Eb
    • E
    • F
    • F#
    • G
    • Ab
  • Adicionar à lista

    0 comentarios

    Ver todos os comentários

    ¿Conseguiste tocar?

    0 Tocaram 0 Ainda não

    Grave um vídeo tocando Beautiful In Blue Intro e nos envie!

    00:00 / 00:00
    outros vídeos desta música
    repetir qualidade Automático
    Outros vídeos desta música
    00:00 / 00:00
    Automático
    OK