Cifra Club

Congratulations, I Hate You

Alesana

Tablatura: Principal (guitarra)
tono: C
Introduçao guitarra 1

E|-------------------------------------------|
B|----------------10------8------------------|
G|-------------------------------------------|
D|----8----0----8----0-----------------------|
A|----8----0----8----0-----------------------|
D|----8----0----8----0-----------------------|

Introdução guitarra 2

E |-------------------------------------------|
B |-------------------------------------------|
G |---10---10---10---10-----------------------|
D |---10---10---10---10-----------------------|
A |----8----0----8----0-----------------------|
D |----8----0----8----0-----------------------|

Introdução guitarra 3

E |-------------------------------------------|
B |-------------------------------------------|
G |----------------------------10-------------|
D |----8----10----0----10----8------0---9-----|
A |----8----------0----------8------0---------|
D |----8----------0----------8------0---------|

Verso 1 guitarra 1

E |--------------------------------------------|-----------------|
B |--------------------------------------------|-----------------|
G |--9h10----9h10-9----12--10--------[6x]------|--9h10-9----12---|
D |-------10--------10--------10---------------|---------10------|
A |--------------------------------------------|-----------------|
D |--------------------------------------------|-----------------|

Verso 1 guitarra 2 e 3

E |--------------------------------------------|
B |--------------------------------------------|
G |--------[ABAFADO]---------------------------|
D |--------------------------------------------|
A |----8----0----8----0------------------------|
D |----8----0----8----0------------------------|

Verso 2 guitarra 1

E |---------------------------|-------------------|---------------------|
B |---------------------------|-------------------|----10---10---10--10-|
G |-------------------9--9----|--12-10-9----------|----10---10---10--10-|
D |-----10-10--------10-10----|----------10-------|--0----0----0----0---|
A |--8-8-8-8------0-0-0-0-----|-------------------|--0----0----0----0---|
D |--8-8-8-8------0-0-0-0-----|----[4x]-----------|--0----0----0----0---|

Verso 2 guitarra 2 e 3

E |---------------------------------------------------------|
B |---------------------------------------------------------|
G |----------------------------10-----10----10-----10-------|
D |-----8-----0----8----0------10-----10----10-----10-------|
A |-----8-----0----8----0------0------0-----0-------0-------|
D |-----8-----0----8----0------0------0-----0-------0-------|

Pré-refrão guitarra 3

E |---------------------|--------------------------------------|
B |---------------------|--------------------------------------|
G |---10----9----9------|--------------------------------------|
D |---10---10---10------|---8----8-8----10----10---------------|
A |----8----0----7------|---8----8-8----10----10---------------|
D |----8----0----7------|---8----8-8----10----10---------------|

Pré-refrão guitarra 1

E |-----------------------------------------------------------|
B |-----------------------------------------------------------|
G |--9-10-12--9-10-12-9-10-12-9-10-12-----12--10--12/---------|
D |-----------------------------------------------------------|
A |-----------------------------------------------------------|
D |-----------------------------------------------------------|

Refrão guitarra 1

E |----------------------|-------------------------------------|
B |----------------------|-------------------------------------|
G |----------12-10-9-----|---12--10--12/-----------------------|
D |----10-10---------10--|-------------------------------------|
A |----------------------|-------------------------------------|
D |--------[7x]----------|-------------------------------------|

Refrão guitarra 2

E |---------------------------------------------------------------------
B |---------------------------------------------------------------------
G |----------10--12-12-12-12-14-14-14-14-15-15-15-15-14-14-12-12--------
D |--8--0-----x--x--x--x--x--x--x--x--x--x--x--x--x--x--x--x--x----7--8-
A |--8--0-----8--10-10-10-10-12-12-12-12-13-13-13-13-12-12-10-10---7--8-
D |--8--0----------------------------------------------------------7--8-

Cont. refrão guitarra 2

E |-------------------------|
B |-------------------------|
G |-------------------------|
D |----8-8----10-10---------|
A |----8-8----10-10---------|
D |----8-8----10-10---------|

Refrão guitarra 3

E |---------------------------------------------------------------------|
B |---------------------------------------------------------------------|
G |---7--7-9-9-9-9-1010101012-12-12-12-10101010-9-9---------------------|
D |8--7--x-x-x-x-x-x-x-x-x-x--x--x--x--x-x-x-x--x-x----7--8--8-8--10-10-|
A |8--5--5-7-7-7-7-8-8-8-8-10-10-10-10-8-8-8-8--7-7----7--8--8-8--10-10-|
D |8---------------------------------------------------7--8--8-8--10-10-|

Verso 3 guitarra 1

E |-------------------------------------------------------|
B |-------------------------------------------------------|
G |-------------------------------------------------------|
D |-0--------14/----5/--------------------------10\--22---|
A |-0---------------------14/----5/--0\----7\-------------|
D |-0-----------------------------------------------------|

Cont. verso 3 guitarra 1

E |----------13-0-12-0-10-0------------------------------|
B |-------10---------------------------------------------|
G |----12------------------------------------------------|
D |------------------------------------------------------|
A |---------------[7x]-----------------------------------|
D |------------------------------------------------------|

Verso 3 guitarra 2 e 3

E |-------[2x]-------------------------------------|---------------------
B |------------------------------------------------|---------------------
G |--------------------------7-7-7-7----5-5-5-5----|---------------------
D |----8-8-8-8----7-7-7-7----7-7-7-7----5-5-5-5----|--8-8----10-10-------
A |----8-8-8-8----7-7-7-7----5-5-5-5----3-3-3-3----|--8-8----10-10-------
D |----8-8-8-8----7-7-7-7--------------------------|--8-8----10-10-------

Refrão 2 guitarra 1

E |----------------------|----------13-0-12-0-10-0-----|----------------|
B |----------------------|-------10--------------------|----------------|
G |----------12-10-9-----|----12-----------------------|---12--10--12/--|
D |----10-10---------10--|-----------------------------|----------------|
A |----------------------|---------------[7x]----------|----------------|
D |--------[7x]----------|-----------------------------|----------------|

Refrão 2 guitarra 2  [2x] 

E |---------------------------------------------------------------------
B |---------------------------------------------------------------------
G |----------10--12-12-12-12-14-14-14-14-15-15-15-15-14-14-12-12--------
D |--8--0-----x--x--x--x--x--x--x--x--x--x--x--x--x--x--x--x--x----7--8-
A |--8--0-----8--10-10-10-10-12-12-12-12-13-13-13-13-12-12-10-10---7--8-
D |--8--0----------------------------------------------------------7--8-

Cont. refrão guitarra 2

E |-------------------------|
B |-------------------------|
G |-------------------------|
D |----8-8----10-10---------|
A |----8-8----10-10---------|
D |----8-8----10-10---------|

Refrão 2 guitarra 3 [2x]

E |---------------------------------------------------------------------|
B |---------------------------------------------------------------------|
G |---7--7-9-9-9-9-1010101012-12-12-12-10101010-9-9---------------------|
D |8--7--x-x-x-x-x-x-x-x-x-x--x--x--x--x-x-x-x--x-x----7--8--8-8--10-10-|
A |8--5--5-7-7-7-7-8-8-8-8-10-10-10-10-8-8-8-8--7-7----7--8--8-8--10-10-|
D |8---------------------------------------------------7--8--8-8--10-10-|

Verso 4 (i'm sorry eu soh consegui tirar a guitarra 3 dessa parte)

E |--------------------------------------------------------|
B |--------------------------------------------------------|
G |--------------9--7--7--6--------------------------------|
D |----0----0----x--x--x--x--------[5x]--------------------|
A |----0----0----7--5--5--4--------------------------------|
D |----0----0----------------------------------------------|

Pré-refrão guitarra 3

E |---------------------|--------------------------------------|
B |---------------------|--------------------------------------|
G |---10----9----9------|--------------------------------------|
D |---10---10---10------|---8----8-8----10----10---------------|
A |----8----0----7------|---8----8-8----10----10---------------|
D |----8----0----7------|---8----8-8----10----10---------------|

Pré-refrão guitarra 1

E |-----------------------------------------------------------|
B |-----------------------------------------------------------|
G |--9-10-12--9-10-12-9-10-12-9-10-12-----12--10--12/---------|
D |-----------------------------------------------------------|
A |-----------------------------------------------------------|
D |-----------------------------------------------------------|

Refrão 2 guitarra 1

E |----------------------|----------13-0-12-0-10-0-----|----------------|
B |----------------------|-------10--------------------|----------------|
G |----------12-10-9-----|----12-----------------------|---12--10--12/--|
D |----10-10---------10--|-----------------------------|----------------|
A |----------------------|---------------[7x]----------|----------------|
D |--------[7x]----------|-----------------------------|----------------|

Refrão 2 guitarra 2  [2x] 

E |---------------------------------------------------------------------
B |---------------------------------------------------------------------
G |----------10--12-12-12-12-14-14-14-14-15-15-15-15-14-14-12-12--------
D |--8--0-----x--x--x--x--x--x--x--x--x--x--x--x--x--x--x--x--x----7--8-
A |--8--0-----8--10-10-10-10-12-12-12-12-13-13-13-13-12-12-10-10---7--8-
D |--8--0----------------------------------------------------------7--8-

Cont. refrão guitarra 2

E |-------------------------|
B |-------------------------|
G |-------------------------|
D |----8-8----10-10---------|
A |----8-8----10-10---------|
D |----8-8----10-10---------|

Refrão 2 guitarra 3 [2x]

E |---------------------------------------------------------------------|
B |---------------------------------------------------------------------|
G |---7--7-9-9-9-9-1010101012-12-12-12-10101010-9-9---------------------|
D |8--7--x-x-x-x-x-x-x-x-x-x--x--x--x--x-x-x-x--x-x----7--8--8-8--10-10-|
A |8--5--5-7-7-7-7-8-8-8-8-10-10-10-10-8-8-8-8--7-7----7--8--8-8--10-10-|
D |8---------------------------------------------------7--8--8-8--10-10-|

Final guitarra 1

E |----------13-0-12-0-10-0-------------------------------|
B |-------10----------------------------------------------|
G |----12-------------------------------------------------|
D |--------------------------------------0----------------|
A |---------------[1x]-------------------0----------------|
D |--------------------------------------0----------------|

Final guitarra 2

E |------------------------------------------------------|
B |------------------------------------------------------|
G |----7-------------------------------------------------|
D |----7-------------------------------------------------|
A |----5-------------------------------------------------|
D |----0-------------------------------------------------|

Final guitarra 3

E |------------------------------------------------------|
B |------------------------------------------------------|
G |----9-------------------------------------------------|
D |---10-------------------------------------------------|
A |----0-------------------------------------------------|
D |----0-------------------------------------------------|
Composição de Shawn Milke
Colaboración y revision:
  • andre ferreira
198 reproducciones
    • ½ Tono
    • A
    • Bb
    • B
    • C
    • Db
    • D
    • Eb
    • E
    • F
    • F#
    • G
    • Ab
  • Adicionar à lista

    0 comentarios

    Ver todos os comentários

    ¿Conseguiste tocar?

    0 Tocaram 0 Ainda não

    Grave um vídeo tocando Congratulations, I Hate You e nos envie!

    00:00 / 00:00
    outros vídeos desta música
    repetir qualidade Automático
    Outros vídeos desta música
    00:00 / 00:00
    Automático
    OK