Cifra Club

Daggers Speak Louder Than Words

Alesana

Tablatura: Principal (guitarra)
tono: G
WELL I DONT KNOW IF THE TUNING OF THE GUITAR IS RIGHT  BUT IT SOUNDS GOOD, ITUNE MY 
IN D# SOO THERS THE TAB

INTRO - VERSE
EYES OPEN TO.....
|--------------------------------------13-11-10-| /
|--10-11-10---10-11-10-11-10---10-11-13---------| /
|-----------12---------------12-----------------| /
|-----------------------------------------------| /
|-----------------------------------------------| /
|-----------------------------------------------| /
                                                  /
|-----------------------------------10-11-10----| /
|--10-11-10---10-11-10-11-10---10-11---------13-| /
|-----------12---------------12-----------------| /
|-----------------------------------------------| /
|-----------------------------------------------| /
|-----------------------------------------------| /
                                                  /  [x2]
|--------------------------------------13-11-10-| /
|--10-11-10---10-11-10-11-10---10-11-13---------| /
|-----------12---------------12-----------------| /
|-----------------------------------------------| /
|-----------------------------------------------| /
|-----------------------------------------------| /
                                                  /
|---------------------10-11-10------------------| /  |--13---15--|
|--10-11-10---10-11-13---------13-11------------| /  |-----------|
|-----------12----------------------------------| /  |-----------|
|-----------------------------------------------| /  |-----------|
|-----------------------------------------------| /  |-----------|
|-----------------------------------------------| /  |-----------|

VERSE
FOR GOOD....
|-----------------------------------------------------------------|
|-----------------------------------------------------------------|
|-----------------------------------------------------------------|
|--10---8----------10------------10-----------10------------10----|
|--10---8---10-8-6---10---10-8-6---10--10-8-6---10---10-8-6--10---|
|--8----6---------------------------------------------------------|
             . . .    .    . . .    .   . . .    .    . . .   .

|------------------------------------------------------------------------|
|----------------------------------------------------------------8-9-11--|
|----------------------------------------------------------7-9-10--------|
|-------------------------------------6-8-10-6-8-10-6-8-10---------------|
|--6-8-10-6-8-10-6-8-10-6-8-10-6-8-10------------------------------------|
|------------------------------------------------------------------------|

|--------------------------------------------------------|
|--------------------------------------------------------|
|--------------------------------------------------------|
|---------10------------10-----------10------------10----|
|--10-8-6---10---10-8-6---10--10-8-6---10---10-8-6--10---|
|--------------------------------------------------------|
    . . .    .    . . .    .   . . .    .    . . .   .

PRE CHORUS
|--------------------------------------------------------|
|--------9--11--13--11--9--11------9--11--13--11--9------|
|--------------------------------------------------------|
|--6-----------------------------------------------------|
|--6-----------------------------------------------------|
|--4-----------------------------------------------------|
         .   .   .   .  .  .       .  .    .   .  .

CHORUS
YOU KNOW  "I WOULD" ...
|------13------13------11------11------11---|                   /
|--9-11----9-11----9-11----9-11----9-11-----|                   /
|-------------------------------------------|                   /
|-------------------------------------------| [x2]              /
|-------------------------------------------|                   /
|-------------------------------------------|                   /
                                                                /  [x2]
|-------------------------------------------------------------| /
|-------------------------------------------------------------| /
|-------------------------------------------------------------| /
|--6-6-6--6-6-6--6-6-6--6-6-6--8-8-8--8-8-8----5-5-5---5---5--| /
|--6-6-6--6-6-6--6-6-6--6-6-6--8-8-8--8-8-8----5-5-5---5---5--| /
|--4-4-4--4-4-4--4-4-4--4-4-4--6-6-6--6-6-6----3-3-3---3---3--| /
                                               . . .            /

VERSE
ALOOONE,  YOU STOOD....
|-----------------------------------------------------------------|
|-----------------------------------------------------------------|
|-----------------------------------------------------------------|
|--6----8----------10------------10-----------10------------10----|
|--6----8---10-8-6---10---10-8-6---10--10-8-6---10---10-8-6--10---|
|--4----6---------------------------------------------------------|
             . . .    .    . . .    .   . . .    .    . . .   .

PRE CHORUS

CHORUS
YOU KNOW  "I WOULD" ...

|------------------------------------------------------------------------------------|
|------------------------------------------------------------------------------------|
|------------------------------------------------------------------------------------|
|--10-10-10-10-10-10-10--10-10-10--10-10-6--6-6-6--6-6--8--8-8--5--5-5-5----5---5----|
|--10-10-10-10-10-10-10--10-10-10--10-10-6--6-6-6--6-6--8--8-8--5--5-5-5----5---5----|
|--8--8--8--8--8--8--8---8--8--8---8--8--4--4-4-4--4-4--6--6-6--3--3-3-3---3---3-----|
                                                                   . . .

VERSE
MY REVENGE IS MADE...
|--------------------------------------13-11-10-| /
|--10-11-10---10-11-10-11-10---10-11-13---------| /
|-----------12---------------12-----------------| /
|-----------------------------------------------| /
|-----------------------------------------------| /
|-----------------------------------------------| /
                                                  /
|-----------------------------------10-11-10----| /
|--10-11-10---10-11-10-11-10---10-11---------13-| /
|-----------12---------------12-----------------| /
|-----------------------------------------------| /
|-----------------------------------------------| /
|-----------------------------------------------| /
                                                  /  [x2]
|--------------------------------------13-11-10-| /
|--10-11-10---10-11-10-11-10---10-11-13---------| /
|-----------12---------------12-----------------| /
|-----------------------------------------------| /
|-----------------------------------------------| /
|-----------------------------------------------| /
                                                  /
|---------------------10-11-10------------------| /  |--15---13--|
|--10-11-10---10-11-13---------13-11------------| /  |-----------|
|-----------12----------------------------------| /  |-----------|
|-----------------------------------------------| /  |-----------|
|-----------------------------------------------| /  |-----------|
|-----------------------------------------------| /  |-----------|

REMEMBERING TIMES ...
|--6-6-6-6-6-6--4-4-4-4-4-4--6-6-6-6-6-6--4-4-4-4-4-4----4---4---4---4--|
|--6-6-6-6-6-6--4-4-4-4-4-4--6-6-6-6-6-6--4-4-4-4-4-4----4---4---4---4--|
|--7-7-7-7-7-7--5-5-5-5-5-5--8-8-8-8-8-8--5-5-5-5-5-5----5---5---5---5--|
|--8-8-8-8-8-8--6-6-6-6-6-6--8-8-8-8-8-8--6-6-6-6-6-6----6---6---6---6--| [x2]
|--8-8-8-8-8-8--6-6-6-6-6-6--6-6-6-6-6-6--6-6-6-6-6-6----6---6---6---6--|
|--6-6-6-6-6-6--4-4-4-4-4-4---------------4-4-4-4-4-4----4---4---4---4--|


PRE CHORUS

CHORUS
YOU KNOW  "I WOULD" ...

OUTRO
"YOU'RE DEAD TO MEE"
|-------------------10----|
|--10-11-10---10-11---11--|
|-----------12------------|
|-------------------------|
|-------------------------|
|-------------------------|


EHM THATS  THE TAB, I HOPE IS CORRECT GUYS, TO SEE HOW IT SOUNDS CHECK OUT THE NEXT URL

http://*?v=Bd-uEcX-XtE

FREAKY WI ^_^!!!!!
Composição de Alesana / Dennis Lee / Shawn Milke
36 reproducciones
    • ½ Tono
    • A
    • Bb
    • B
    • C
    • Db
    • D
    • Eb
    • E
    • F
    • F#
    • G
    • Ab
  • Adicionar à lista

    0 comentarios

    Ver todos os comentários

    ¿Conseguiste tocar?

    0 Tocaram 0 Ainda não

    Grave um vídeo tocando Daggers Speak Louder Than Words e nos envie!

    00:00 / 00:00
    outros vídeos desta música
    repetir qualidade Automático
    Outros vídeos desta música
    00:00 / 00:00
    Automático
    OK