Cifra Club

Endings Without Stories Solo

Alesana

Tablatura: Principal (guitarra)
Já pensou em usar uma coleção de roupas do Cifra Club? Responda as perguntas abaixo e nos ajude nessa missão! →
tono: A
This is just the solo for the song, it's quite fun to play, and the rest is easy to 
out and i didnt feel like typing it all, so here it goes...

This is the part right before the solo...

|------------------------------------|
|------------------------------------|
|------------------------------------|
|-2h4-4-4--2h4-4-4--2h4-4-4--2h4-4-4-|
|-2h4-4-4--2h4-4-4--2h4-4-4--2h4-4-4-|
|-2h4-4-4--2h4-4-4--2h4-4-4--2h4-4-4-|

|-------------------------|
|-------------------------|
|-------------------------|
|-4-4-4-4-4-4-5-5-5-5-5-5-|
|-4-4-4-4-4-4-5-5-5-5-5-5-|
|-4-4-4-4-4-4-5-5-5-5-5-5-|

|------------------------------------|
|------------------------------------|
|------------------------------------|
|-2h4-4-4--2h4-4-4--2h4-4-4--2h4-4-4-|
|-2h4-4-4--2h4-4-4--2h4-4-4--2h4-4-4-|
|-2h4-4-4--2h4-4-4--2h4-4-4--2h4-4-4-|

|----------------------|
|----------------------|
|----------------------|
|-4-4-4-4-4-4-5-5-5--7-|
|-4-4-4-4-4-4-5-5-5--7-|
|-4-4-4-4-4-4-5-5-5--7-|

Now the solo...

|------------------------------------------------------|
|------------------------------------------------------|
|-9-11-9-7-6-4--4-6-7-6-7-9--9-11-9-7-6-4--9-7-6-4-6-7-|
|------------------------------------------------------|
|------------------------------------------------------|
|------------------------------------------------------|

|-----------------------------------------------------------------|
|-----------------------------------------------------------------|
|-9-11-9-7-6-4--4-6-7-6-7-9--9-11-9-7-6-4-4p0-6p0-7p0-6p0-7p0-9p0-|
|-----------------------------------------------------------------|
|-----------------------------------------------------------------|
|-----------------------------------------------------------------|

|---------------------------------------------------|
|---------------------------------------------------|
|-9p0-11p0-9p0-7p0-6p0-4p0--4p0-6p0-7p0-6p0-7p0-9p0-|
|---------------------------------------------------|
|---------------------------------------------------|
|---------------------------------------------------|

|---------------------------------------------------|
|---------------------------------------------------|
|-9p0-11p0-9p0-7p0-6p0-4p0--9p0-7p0-6p0-4p0-6p0-7p0-|
|---------------------------------------------------|
|---------------------------------------------------|
|---------------------------------------------------|

|---------------------------------------------------|
|---------------------------------------------------|
|-9p0-11p0-9p0-7p0-6p0-4p0--4p0-6p0-7p0-6p0-7p0-9p0-|
|---------------------------------------------------|
|---------------------------------------------------|
|---------------------------------------------------|

|--------------------------|
|--------------------------|
|-9p0-11p0-9p0-7p0-6p0-4p0-|
|--------------------------|
|--------------------------|
|--------------------------|

Then Back Into The Chorus, etc.
Composição de Shawn Milke
31 reproducciones
    • ½ Tono
    • A
    • Bb
    • B
    • C
    • Db
    • D
    • Eb
    • E
    • F
    • F#
    • G
    • Ab
  • Adicionar à lista

    0 comentarios

    Ver todos os comentários

    ¿Conseguiste tocar?

    0 Tocaram 0 Ainda não

    Grave um vídeo tocando Endings Without Stories Solo e nos envie!

    00:00 / 00:00
    outros vídeos desta música
    repetir qualidade Automático
    Outros vídeos desta música
    00:00 / 00:00
    Automático
    OK