Cifra Club

Last Three Letters

Alesana

Tablatura: Principal (guitarra)
Já pensou em usar uma coleção de roupas do Cifra Club? Responda as perguntas abaixo e nos ajude nessa missão! →
tono: Db
THIS SONG IS PRETTY COOL, AND ITS EASY,  DROP D# ^_^

INTRO
|---------9--------9--------9--------9---------------------------------------|
|---7--9-----7--9-----7--9-----7--9-----9--6--7--9--7--6--9--6--7--9--7--6---|
|--6--6--6--6--6--6--6--6--6--6--6--6--6--6--6--6--6--6--6--6--6--6--6--6----|    [x2]
|----------------------------------------------------------------------------|
|----------------------------------------------------------------------------|
|----------------------------------------------------------------------------|

                               OR

|---------------------------------------------------------------------------------------|
|--------------------------------------8-8-8-8-8-----------8---8-8-8-8-8------------8---|
|--------------------------------------8-8-8-8-8-----------8---8-8-8-8-8------------8---|   [x2]
|--9-9-9-9-9-9-----11-11-11-11-11-11---6-6-6-6-6---6-6-6-6-6---6-6-6-6-6---6-6-6-6-6---|
|--9-9-9-9-9-9-----11-11-11-11-11-11----------------------------------------------------|
|--7-7-7-7-7-7-----9--9--9--9--9--9-----------------------------------------------------|
   . . . . .       .  .  .  .  .       . . . .     . . . .      . . . .     . . . .

EVERY SINGLE WORDS....
|-----------------------------------------------------------------------|
|-----------------------------------------------------------------------|
|-------------------------------------8-8-8-8-8-8-8-8-8-8-8-8-8-8-8-8---|
|--9-9-9-9-9-9-9-11-11-11-11-11-11-11-8-8-8-8-8-8-8-8-8-8-8-8-8-8-8-8---| [x2]
|--9-9-9-9-9-9-9-11-11-11-11-11-11-11-6-6-6-6-6-6-6-6-6-6-6-6-6-6-6-6---|
|--7-7-7-7-7-7-7-9--9--9--9--9--9--9------------------------------------|
   . . . . . . . .  .  .  .  .  .  .  . . . . . . . . . . . . . . . .

"EYES" FORFEIT...
|---------------------------------------------------------------------|
|---------------------------------------------------------------------|
|--8-8-8---------8-8-8----------8-8-8---------------------------------|
|--8-8-8--9-9-9--8-8-8--11-9-8--8-8-8--9-9-9--------------------------|
|--6-6-6--9-9-9--6-6-6--11-9-8--6-6-6--9-9-9--------------------------|
|---------7-7-7---------9--7-6---------7-7-7--6-6-7-7-9-9-9-9-7-7-6---|
                                              . . . . . . . . . . .

|---------------------------------------------------------------------|
|---------------------------------------------------------------------|
|--8-8-8---------8-8-8----------8-8-8---------------------------------|
|--8-8-8--9-9-9--8-8-8--11-9-8--8-8-8--9-9-9---9-9-9----11------------|
|--6-6-6--9-9-9--6-6-6--11-9-8--6-6-6--9-9-9---9-9-9----11------------|
|---------7-7-7---------9--7-6---------7-7-7---7-7-7----9-------------|

CHORUS
WERE THE LAST WORDS....
|--11-9---------13-14-13-11-9-11-11-9---------13-14-13-11-9-11---| /
|-------11-9-11-----------------------11-9-11--------------------| /
|----------------------------------------------------------------| /
|----------------------------------------------------------------| /
|----------------------------------------------------------------| /
|----------------------------------------------------------------| /
                                                                   /  [x2]
|--11-9---13-11---------11-9---14-13-----------------------------| /
|----------------11/12----------------11/9-----------------------| /
|-----------------X/X------------------X/X-----------------------| /
|-----------------8/9------------------8/6-----------------------| /
|----------------------------------------------------------------| /
|----------------------------------------------------------------| /

ITS ME AGAIIN.....
|--------------------------6-6--------|
|--7-7-7-7-7-7-7-7-6-6-6-6-----9-9----|
|---6-6-6-6-6-6-6-6-6-6-6-6-6-6-6-6---|
|-------------------------------------|
|-------------------------------------|
|-------------------------------------|

|------------------------------------------------------------------|
|------------------------------------------------------------------|
|--8-X-X-X-X-X-8-8-8--8-8---------8-X-X-X-X-X-8-8-8--8-8-----------|
|--8-X-X-X-X-X-8-8-8--8-8--9--11--8-X-X-X-X-X-8-8-8--8-8--9--11----|
|--6-X-X-X-X-X-6-6-6--6-6--9--11--6-X-X-X-X-X-6-6-6--6-6--9--11----|
|--------------------------7--9---------------------------7--9-----|

TO BE CONCERNED.....
|--------------------------6-6--------|
|--7-7-7-7-7-7-7-7-6-6-6-6-----9-9----|
|---6-6-6-6-6-6-6-6-6-6-6-6-6-6-6-6---|
|-------------------------------------|
|-------------------------------------|
|-------------------------------------|

|------------------------------------------------------------------|
|------------------------------------------------------------------|
|--8-X-X-X-X-X-8-8-8--8-8---------8-X-X-X-X-X-8-8-8--8-8--15--13---|
|--8-X-X-X-X-X-8-8-8--8-8--9--11--8-X-X-X-X-X-8-8-8--8-8--15--13---|
|--6-X-X-X-X-X-6-6-6--6-6--9--11--6-X-X-X-X-X-6-6-6--6-6--13--11---|
|--------------------------7--9------------------------------------|

WAS THIS ALL A LIE? WHYYYYYYY?
|----------------------------------------------|
|-------------7--------------------------------|
|--8----10----8--------------------------------|
|--9----11----8----8-8-8-8-6-6-6-6-4-4-4-4-3---|
|--9----11----6--------------------------------|
|--7----9--------------------------------------|
                   . . . . . . . . . . . . .

CHORUS
WERE THE LAST WORDS....
|--11-9---------13-14-13-11-9-11-11-9---------13-14-13-11-9-11---| /
|-------11-9-11-----------------------11-9-11--------------------| /
|----------------------------------------------------------------| /
|----------------------------------------------------------------| /
|----------------------------------------------------------------| /
|----------------------------------------------------------------| /
                                                                   /  [x2]
|--11-9---13-11---------11-9---14-13-----------------------------| /
|----------------11/12----------------11/9-----------------------| /
|-----------------X/X------------------X/X-----------------------| /
|-----------------8/9------------------8/6-----------------------| /
|----------------------------------------------------------------| /
|----------------------------------------------------------------| /

MAKE IT STOP, MAKE.....
|------------------------------------------------------------| /
|---0-9-0-7-0-0-9-0-7-0-6-7-0-9-0-7-0-0-9-0-7-0-0-9-0-7------| /
|--6---------6-------------6---------6---------6-------------| /
|------------------------------------------------------------| /
|------------------------------------------------------------| /
|------------------------------------------------------------| /
                                                               / [X2]
|------------------------------------------------------------| /
|---0-9-0-7-0-0-9-0-7-0-6-7-0-9-0-7-0-0-9-0-7-0-6-0-7-0-6----| /
|--6---------6-------------6---------6-----------------------| /
|------------------------------------------------------------| /
|------------------------------------------------------------| /
|------------------------------------------------------------| /

IF MY WORDS EVER REACH...
|------------------------------------------------|
|------------------------------7-9-11---7--------|
|--8-8-8-8-8--8/-------------8--------8---10-----|
|--8-8-8-8-8--8/--9-9-9-9-9----------------------|
|--6-6-6-6-6--6/--9-9-9-9-9----------------------|
|-----------------7-7-7-7-7----------------------|

|------------------------------------------------------------|
|------------------------------7-9-11---7------7-9-11--------|
|--8-8-8-8-8--8/-------------8--------8---10-8--------10-8---|
|--8-8-8-8-8--8/--9-9-9-9-9----------------------------------|
|--6-6-6-6-6--6/--9-9-9-9-9----------------------------------|
|-----------------7-7-7-7-7----------------------------------|

|----------------------------------------------------|
|----------------------------------7-9-11---7--------|
|--8-8-8-8-8-8-8-11-11-11-11-11--8--------8---10-----|
|--8-8-8-8-8-8-8-9--9--9--9--9-----------------------|
|----------------------------------------------------|
|----------------------------------------------------|

|----------------------------------------------------------------|
|----------------------------------7-9-11---7------7-9-11--------|
|--8-8-8-8-8-8-8-11-11-11-11-11--8--------8---10-8--------10-8---|
|--8-8-8-8-8-8-8-9--9--9--9--9-----------------------------------|
|----------------------------------------------------------------|
|----------------------------------------------------------------|

CHORUS
WERE THE LAST WORDS....
|--11-9---------13-14-13-11-9-11-11-9---------13-14-13-11-9-11---| /
|-------11-9-11-----------------------11-9-11--------------------| /
|----------------------------------------------------------------| /
|----------------------------------------------------------------| /
|----------------------------------------------------------------| /
|----------------------------------------------------------------| /
                                                                   /  [x2]
|--11-9---13-11---------11-9---14-13-----------------------------| /
|----------------11/12----------------11/9-----------------------| /
|-----------------X/X------------------X/X-----------------------| /
|-----------------8/9------------------8/6-----------------------| /
|----------------------------------------------------------------| /
|----------------------------------------------------------------| /

OUTHRO
COLD SCALPEL'S.....
|---------------------------------------------------------------------|
|---------------------------------------------------------------------|
|--8-8-8---------8-8-8----------8-8-8---------------------------------|
|--8-8-8--9-9-9--8-8-8--11-9-8--8-8-8--9-9-9--------------------------|
|--6-6-6--9-9-9--6-6-6--11-9-8--6-6-6--9-9-9--------------------------|
|---------7-7-7---------9--7-6---------7-7-7--6-6-7-7-9-9-9-9-7-7-6---|
                                              . . . . . . . . . . . 


THATS THE END, WELL HOPE IS FINE, CHECK OUT THE VIDEO AT

http://*?v=QkyEKyzGCNI

THANX  FREAKY WI  ^_^ !!!!!!
Composição de Alesana / Dennis Lee / Shawn Milke
116 reproducciones
    • ½ Tono
    • A
    • Bb
    • B
    • C
    • Db
    • D
    • Eb
    • E
    • F
    • F#
    • G
    • Ab
  • Adicionar à lista

    0 comentarios

    Ver todos os comentários

    ¿Conseguiste tocar?

    0 Tocaram 0 Ainda não

    Grave um vídeo tocando Last Three Letters e nos envie!

    00:00 / 00:00
    outros vídeos desta música
    repetir qualidade Automático
    Outros vídeos desta música
    00:00 / 00:00
    Automático
    OK