Cifra Club

Seduction

Alesana

Tablatura: Principal (guitarra)
tono: A
E |-----------------------------------------------|
A |------------------4----------------4--4--------|
D |---------4-----------------4-----------------4-|  x2
G |-----6--------6--------6--------6---------6----|
B |-----------------------------------------------|
E |-----------------------------------------------|

E |-----------------------------------------------|
A |-----------------------------------------------|
D |-----------------------------------------------|
G |----77777-77-77-7777-----99999-99-99-9999------|
B |----77777-77-77-7777-----99999-99-99-9999------|
E |----77777-77-77-7777-----99999-99-99-9999------|

E |-----------------------------------------------|
A |-----------------------------------------------|
D |-----------------------------------------------|  *= 11
G |----*****-**-**-****-----*****-*9-99-6666------|
B |----*****-**-**-****-----*****-*9-99-6666------|
E |----*****-**-**-****-----*****-*9-99-6666------|

1.-
E |-----------------------------7-----------------|
A |---------5----7----9----7---------9------------|
D |-----4-----------------------------------------|
G |-----------------------------------------------|  x3
B |-----------------------------------------------|
E |-----------------------------------------------|

E |-----------------------------7----9------------|
A |---------5----7----9----7----------------------|   (you have to play this part
D |-----4-----------------------------------------|   and the one before 2 times..
G |-----------------------------------------------|   and in the third you only
B |-----------------------------------------------|   play the 1 and then this)
E |-----------------------------------------------|

E |-----------------------------------------------|
A |-----------------------------------------------|
D |-----------------------------------------------|
G |-----666666666666666---------------------------|
B |-----444444444444444---------------------------|
E |-----444444444444444---------------------------|

E |--------------------7--------------------------|
A |--------5-0-4-0-5-0---0-5-0-4-5----------------|
D |-----------------------------------------------|
G |-----6-----------------------------------------|
B |-----4-----------------------------------------|
E |-----4-----------------------------------------|

E |--------------------7--------------------------|
A |--------5-0-4-0-5-0---0-5-0-4-5----------------|
D |----2------------------------------------------|
G |----2------------------------------------------|
B |----0------------------------------------------|
E |-----------------------------------------------|

E |--------------------7--------------------------|
A |--------5-0-4-0-5-0---0-5-0-4-5----------------|
D |-------------------------------------2---------|
G |-----4-------------------------------2---------|
B |-----4-------------------------------0---------|
E |-----4-----------------------------------------|

E |-----------------------------------------------|
A |-----------------------------------------------|
D |-----666666666666666666666666666---------------|
G |-----------------------------------------------|
B |-----444444444444444444444444444---------------|
E |-----------------------------------------------|

E |-----------------------------------------------|
A |-----------------------------------------------|
D |-----444---------------------------------------|
G |---------2222222222222222222222222222----------|
B |-----222-0000000000000000000000000000----------|
E |-----------------------------------------------|

E |-----------------------------------------------|
A |-----------------------------------------------|
D |-----444-666-888-999-**-999--------------------|
G |-----------------------------------------------| *=11
B |-----222-444-666-777-99-666--------------------|
E |-----------------------------------------------|

E |-----------------------------------------------|
A |-----------------------------------------------|
D |------99999999999999-****************----------|
G |-----------------------------------------------| *=12
B |------77777777777777-9999999999999999----------|
E |-----------------------------------------------|

E |-----------------------------------------------|
A |----------------------4-------------4----------|
D |---------------4-------------4-----------------|
G |------------6-----6-------6-----6--------------|
B |------12/--------------------------------------|
E |-----------------------------------------------|

E |-----------------------------------------------|
A |-----------------------------------------------|
D |------------88-88-88-88-88-88-66-88------------|
G |-------6/--------------------------------------|
B |------------66-66-66-66-66-66-44-66------------|
E |-----------------------------------------------|

E |-----------------------------------------------|
A |-----------------------------------------------|
D |------------99-99-99-99-99-99-**-14-14---------|
G |-----------------------------------------------| *=11
B |------------77-77-77-77-77-77-99-12-12---------|
E |-----------------------------------------------|

E |---------------------|
A |---------------12----|
D |------------13----12-| x4
G |---------------------|
B |------11-11----------|
E |---------------------|

E |---------------------|
A |---------------12----|
D |------------13----12-| x2
G |---------------------|
B |------12-12----------|
E |---------------------|


Composição de Shawn Milke
Colaboración y revision:
  • James Johny
772 reproducciones
  • Simplificar cifra
    • ½ Tono
    • A
    • Bb
    • B
    • C
    • Db
    • D
    • Eb
    • E
    • F
    • F#
    • G
    • Ab
  • Adicionar à lista

    0 comentarios

    Ver todos os comentários

    ¿Conseguiste tocar?

    0 Tocaram 0 Ainda não

    Grave um vídeo tocando Seduction e nos envie!

    00:00 / 00:00
    outros vídeos desta música
    repetir qualidade Automático
    Outros vídeos desta música
    00:00 / 00:00
    Automático
    OK