Cifra Club

Tilting The Hourglass

Alesana

Tablatura: Principal (guitarra)
tono: D
I got a lot of it down, i'm not promising its 100% but its the closest I got to it. I 
there still some parts that are missing, but I worked pretty hard on this tab.


[Intro]

Guitar 1

e|------------------------------------|--------------|
b|------------------------------------|--------------|         The second
g|-999999999999--999977777777--12-----|-444455555555-|    time through only
d|-xxxxxxxxxxxx--xxxxxxxxxxxx--x--x12-|-xxxxxxxxxxxx-| X2      play 12
a|-777777777777--777755555555--10-----|-222233333333-|               x
E|------------------------------------|--------------|              10

e|--------------------------------------|
b|--------------------------------------|
g|-----------------2-3-5-3-2-3-5-7-5-3--|
d|--------------------------------------|
a|-0-00-00-0-00-00----------------------|
E|-0-00-00-0-00-00----------------------|
   • •• •• • •• ••

e|------------------14*-|
b|----------------------|
g|-2-2-2---2-2-2--------|
d|-x-x-x-5-x-x-x--------|
a|-0-0-0-x-0-0-0--------|
E|-------3--------------|
you take my breathe away...



Verse 1


e|-12-0-10-0-15-0-12-0-9-0-10-0-7-0-9-0----|
b|-----------------------------------------|
g|-----------------------------------------| X2
d|-----------------------------------------|
a|-----------------------------------------|
E|-----------------------------------------|

e|-12-0-10-0-15-0-12-0-9-0-10-0-7--------|
b|---------------------------------------|
g|---------------------------------------|
d|---------------------------------7-7---|
a|---------------------------------7-7---|
E|---------------------------------5-5---|




[pre-chorus]

Its all piano (i'll try to figure this out later)



[Chorus]


e|------------------------------------------------------------------------|
b|------------------------------------------------------------------------|
g|------------------------------------------------------------------------|
d|---5-9-5---5-9-5-7-9-10-12-10-9-10---7-10-7---7-10-7-7-9-10-12-10-9-10--|
a|-3-------3--------------------------------------------------------------|
E|-----------------------------------5--------5---------------------------|

my iron eyes tell the tale...

e|--------------------------------------------------------|
b|--------------------------------------------------------|
g|--------------------------------------------------------|
d|-0-5s7-2-5s7-3-7s8-5-8s10----7-10-7-7-9-10-12-10-9-7-9--|
a|-0-----2-----3-----5-------5----------------------------|
E|-0-----0-----3-----5------------------------------------|

                             I can be only this...

[Verse 2]

e|------------------------------------------------------------------|
b|------------------------------------------------------------------|
g|------14-14-14-14-----9-9-9-9------10-10-10-10------7-7-7-7-------|
d|-5555-------------5555--------5555-------------5555---------------|X4
a|-5555-------------5555--------5555-------------5555---------------|
E|-3333-------------3333--------3333-------------3333---------------|

e|-7p0-3p0-5p0-2p0-3p0-5p0-7p0-5p0--|
b|----------------------------------|
g|----------------------------------|
d|----------------------------------| X Alot
a|----------------------------------|
E|----------------------------------|

and when I'm gone will you forget me?



[Pre-Chorus]

Play this the second time around

e|-------------------|
b|-------------------|
g|-5-----------------|
d|-5----5----3----5--|
a|-3----5----3----5--|
E|------3----3----3--|



[Chorus]


e|------------------------------------------------------------------------|
b|------------------------------------------------------------------------|
g|------------------------------------------------------------------------|
d|---5-9-5---5-9-5-7-9-10-12-10-9-10---7-10-7---7-10-7-7-9-10-12-10-9-10--|
a|-3-------3--------------------------------------------------------------|
E|-----------------------------------5--------5---------------------------|

        my iron eyes tell the tale...

e|--------------------------------------------------------|
b|--------------------------------------------------------|
g|--------------------------------------------------------|
d|-0-5s7-2-5s7-3-7s8-5-8s10----7-10-7-7-9-10-12-10-9-7-9--|
a|-0-----2-----3-----5-------5----------------------------|
E|-0-----0-----3-----5------------------------------------|

heroes always pay in their blood, I can be only this...

[Bridge]

e|--------0----xxx-----------------xx-----------------------0------|
b|--------4----xxx-----------------xx-----------------------4------|
g|--------4----xxx--------4-----4--xx-----------4-----4-----4------|
d|-2------5----xxx-0--0-0---0-0----xx000-0--0-0---0-0---3---5------|
a|-2------0----xxx-0--0-0---0-0----xx000-0--0-0---0-0---3---0------|
E|-0-----------xxx-0--0-0---0-0----xx000-0--0-0---0-0---3----------|
                   •  • •   • •      ••• •  • •   • •


e|-12-0-9-0-14-0-12-0--|
b|---------------------|
g|---------------------| X2
d|---------------------|
a|---------------------|
E|---------------------|

e|-----------------------------------|
b|-----------------------------------|
g|-------7-------7-------7------7----|
d|-0000--x-0000--x-0000--x-0000-x----|
a|-0000--5-0000--5-0000--5-0000-5----|
E|-0000----0000----0000----0000------|
   ••••    ••••    ••••    ••••

e|-12-0-9-0-14-0-12-0--|
b|---------------------|
g|---------------------| X2
d|---------------------|
a|---------------------|
E|---------------------|

e|----------------------------------------------------------------|
b|----------------------------------------------------------------|
g|-------7-------7-------7------7---------------------------------|
d|-0000--x-0000--x-0000--x-0000-x---3-5-7/---3-5-7/---3-5-7/---3--|
a|-0000--5-0000--5-0000--5-0000-5---3-5-7/---3-5-7/---3-5-7/---3--|
E|-0000----0000----0000----0000-----3-5-7/---3-5-7/---3-5-7/---3--|
   ••••    ••••    ••••    ••••



[Chorus]


e|------------------------------------------------------------------------|
b|------------------------------------------------------------------------|
g|------------------------------------------------------------------------|
d|---5-9-5---5-9-5-7-9-10-12-10-9-10---7-10-7---7-10-7-7-9-10-12-10-9-10--|
a|-3-------3--------------------------------------------------------------|
E|-----------------------------------5--------5---------------------------|

            my iron eyes tell the tale...


e|--------------------------------------------------------|
b|--------------------------------------------------------|
g|--------------------------------------------------------|X2
d|-0-5s7-2-5s7-3-7s8-5-8s10----7-10-7-7-9-10-12-10-9-7-9--|
a|-0-----2-----3-----5-------5----------------------------|
E|-0-----0-----3-----5------------------------------------|

   heroes always pay in their blood, I can be only this...

[end]

e|---------------------------------------------------|
b|---------------------------------------------------|
g|------14-14-14-14-----14-14-14-14------14-14-14-14-|
d|-5555-------------5555------------5555-------------|
a|-5555-------------5555------------5555-------------|
E|-3333-------------3333------------3333-------------|



2====================================
============================================================================


After guitar 1 plays the first time, Guitar 2 comes in


[Intro]


e|-------------------------------------------|--------------------|
b|-------------------------------------------|--------------------|
g|-555555555555--555544444444--999999999999--|--------------------|
d|-xxxxxxxxxxxx--xxxxxxxxxxxx--xxxxxxxxxxxx--|-0-00-00-0-00-00----|
a|-333333333333--333322222222--777777777777--|-0-00-00-0-00-00-X2-|
E|-------------------------------------------|-0-00-00-0-00-00----|
                                               • •• •• • •• ••


[Chorus]


e|------------------------------------------------------------------------|
b|------------------------------------------------------------------------|
g|------------------------------------------------------------------------|
d|---5-9-5---5-9-5-7-9-10-12-10-9-10---7-10-7---7-10-7-7-9-10-12-10-9-10--|
a|-3-------3--------------------------------------------------------------|
E|-----------------------------------5--------5---------------------------|

e|----------------------|
b|----------------------|
g|-2-2-2---2-2-2--------|
d|-x-x-x-5-x-x-x--------|
a|-0-0-0-x-0-0-0--------|
E|-------3--------------|

[Verse 1]

e|-------------------------------------|
b|-------------------------------------|
g|-------------------------------------|
d|-222-222-222-222-444-444-444-444-----| X3
a|-222-222-222-222-444-444-444-444-----|
E|-000-000-000-000-222-222-222-222-----|


[Chorus]


e|---------------------------------------|
b|---------------------------------------|
g|---------------------------------------|
d|-7------5------22--22--22--22--4-------|
a|-7-X16--5-X16--22--22--22--22--4-X16---|
E|-5------3------22--22--22--22--2-------|


[Verse 2]


e|----------------------------------------------------|
b|----------------------------------------------------|
g|----------------------------------------------------|
d|-55-55-55-55-33-33-33-33-22-22-22-22-33-33-33-33----|
a|-55-55-55-55-33-33-33-33-22-22-22-22-33-33-33-33----|
E|-55-55-55-55-33-33-33-33-22-22-22-22-33-33-33-33----|

e|--------------------------------------------------|
b|--------------------------------------------------|
g|--------------------------------------------------|
d|-5------3------222-222-222-222-444-444-444-444----|
a|-5-X32--3-X32--222-222-222-222-444-444-444-444----|
E|-2------3------000-000-000-000-222-222-222-222----|


[Pre-Chorus]

Play this the second time around

e|-------------------|
b|-------------------|
g|-5-----------------|
d|-5----5----3----5--|
a|-3----5----3----5--|
E|------3----3----3--|



[Chorus]


e|---------------------------------------|
b|---------------------------------------|
g|---------------------------------------|
d|-7------5------22--22--22--22--4-------|
a|-7-X16--5-X16--22--22--22--22--4-X16---|
E|-5------3------22--22--22--22--2-------|


[Bridge]

e|----------------------------|
b|----------------------------|
g|----4-----------------------|
d|-2-------------------3------|
a|-2-------------------3------|
E|-0-------------------3------|

e|-----------------------------------|
b|-----------------------------------|
g|-------7-------7-------7------7----|
d|-0000--x-0000--x-0000--x-0000-x----|
a|-0000--5-0000--5-0000--5-0000-5----|
E|-0000----0000----0000----0000------|
   ••••    ••••    ••••    ••••

e|----------------------------------------------------------------|
b|----------------------------------------------------------------|
g|-------7-------7-------7------7---------------------------------|
d|-0000--x-0000--x-0000--x-0000-x---3-5-7/---3-5-7/---3-5-7/---3--|
a|-0000--5-0000--5-0000--5-0000-5---3-5-7/---3-5-7/---3-5-7/---3--|
E|-0000----0000----0000----0000-----3-5-7/---3-5-7/---3-5-7/---3--|
   ••••    ••••    ••••    ••••


[Chorus]


e|---------------------------------------|
b|---------------------------------------|
g|---------------------------------------|
d|-7------5------22--22--22--22--4-------| X2
a|-7-X16--5-X16--22--22--22--22--4-X16---|
E|-5------3------22--22--22--22--2-------|



============================================================================

you take my breathe away...
but I'll never taste your lips
as fate keeps me locked away
I must close my eyes to see your face

emptiness has darkened my eyes
as I hopelessly bed for my life to end
...tell me why...
my iron eyes tell the tale
heroes always pay in their blood
I can be only this

I see the fear growing in their lost eyes
my purpose is so clear...I am the ax
I am the ax and this is why I must not fear the end
and when I'm gone will you forget me?
pen wears its steady course across the page
resigned to it's designs to take the hive

emptiness has darkened my eyes
as I hopelessly bed for my life to end
...tell me why...
I wish I could make you see, I wish I could make you see through the pain
through the end, I wish I could make you see the greater purpose that I have to serve...
no one else will fight...no-one else will fight...so I must
my iron eyes tell the tale
heroes always pay in their blood
I can be only this

I see the fear growing in there...
Composição de Alesana / Dennis Lee / Shawn Milke
98 reproducciones
    • ½ Tono
    • A
    • Bb
    • B
    • C
    • Db
    • D
    • Eb
    • E
    • F
    • F#
    • G
    • Ab
  • Adicionar à lista

    0 comentarios

    Ver todos os comentários

    ¿Conseguiste tocar?

    0 Tocaram 0 Ainda não

    Grave um vídeo tocando Tilting The Hourglass e nos envie!

    00:00 / 00:00
    outros vídeos desta música
    repetir qualidade Automático
    Outros vídeos desta música
    00:00 / 00:00
    Automático
    OK